» » »

Queen, Ride The Wild Wind Bass tabs (ver.1)

Artists:  A B C D E F G H I J K L M N O P Q R S T U V W X Y Z # 

Ride The Wild Wind Bass tabs (ver.1)

Queen Tabs
Rating:
0/5 (0 votes)
Ride The Wild Wind lessons Tabs too difficult? Try these video lessons and learn fast
                RIDE THE WILD WIND
QUEEN
WRITTEN BY QUEEN
TAKEN FROM THE ALBUM "INNUENDO"


tempo - 114 bpm


				    slides are very fast	
G|5-----let|ring-----5-|5s7--------|5s7-5s7-5s7-5s7-755|3-----let|ring------35|---------|-----------------|
D|---------|--------7-7|-----------|-------------------|---------|------------|3--------|2/3-----2/3---2-0|
A|---------|-----------|-----------|-------------------|---------|------------|---------|-----------------|
E|---------|-----------|-----------|-------------------|---------|------------|---------|-----------------|

G|---------|-----------------|--------------|-----------------------|--------------------| 
D|---------|-------------5\--|*------------*|*----------------------|------------------3*| 
A|3--------|1/3----1/3-------|*1/3----1/3--*|*-5------3-5--5------3-|5------3-5--3--55--*| 
E|---------|-----------------|--------------|-----5-5---------5-5---|---5-5--------------| 

   1st & 2nd Verse
G|--------------------|------------------|--------------------|-------------------|--------------------|--------------------|
D|*-------------------|------------------|--------------------|-------------------|--------------------|--------------------|
A|*-5------3-5------3-|5------3-5------3-|3---------3---------|3---------3-3--3-2-|0---------0---------|0---------0-------0-|
E|-----5--5-----5-5---|---5--5-----5-5---|---3--3-5----3--3-5-|---3--3-5----------|---0--0-3----0--0-3-|---0--0-3----0--0---|

G|----------0---------|0---------0-------0-|--------------------|--------------------|--------------------|
D|---0--0-3----0--0-3-|---0--0-3----0--0---|--------------------|--------------------|--------------------|
A|--------------------|--------------------|1--1--1-1-1--1--1-1-|1--1--1-1-1--1--1-1-|--------------------|
E|3-------------------|--------------------|--------------------|--------------------|1--1--1-1-1--1--1-1-|

G|--------------------|--------------------|--------------------|--------------------|--------------------|
D|--------------------|--------------------|--------------------|--------------------|--------------------|
A|--------------------|--------------------|--------------------|--------------------|--------------------|
E|1--1--1-1-1--1--1-1-|0--0--0-0-0--0--0-0-|0--0--0-0-0--0--0-0-|0--0--0-0-0--0--0-0-|0--0--0-0-0--0-0000-|

G|--------------------|--------------------|--------------------|-------------------|--------------------|
D|--------------------|--------------------|--------------------|---------------3---|--------------------|
A|3--3--3-3-3--3--3-3-|3--3--3-3-3--3--3-3-|5--5--5-5-5--5--5-5-|5--5--5-5-5--5--53-|1--1--1-1-1--1--1-1-|
E|--------------------|--------------------|--------------------|-------------------|--------------------|

G|--------------------|--------------------|--------------------|--------------------| 
D|--------------------|--------------------|--------------------|--------------------| X4
A|1--1--1-1-1--1--1-1-|--------------------|--------------------|3--3--3-3-3--3--3-3-| 
E|--------------------|1--1--1-1-1--1--1-1-|1--1--1-1-1--1--1-1-|--------------------| 
		
							1st time      |
G|--------------|--------------|------------------|-------------------| 
D|--------------|--------------|----------------3-|------------------*| 
A|3/5----3/5----|3/5----3/5----|5-------5-5---33--|5-------3-5------3*| 
E|--------------|--------------|---5--5-----5-----|---5--5------355---| 

    2nd time |							       guitar solo
G|5-7----\---|--------------|--------------|5s7-5s7-5s7-5s7-5s7-5s7-|7-------5-7--5---5-|7-------5-7--7--7-\-|
D|-----------|--------------|--------------|------------------------|---7--7--------7---|---7--7-------------|
A|-----------|3-5----3-5----|3-5----3-5----|------------------------|-------------------|--------------------|
E|-----------|--------------|--------------|------------------------|-------------------|--------------------|

G|--------------------|--------------------|--------------------|--------------------|---------------------|
D|--------------------|--------------------|--------------------|--------------------|---------------------|
A|3---------3---------|3---------3--3--3-2-|----------0--0------|--------------------|---------------------|
E|---3--3-5----3--3-5-|---3--3-5-----------|5--5--0-3-------0-3-|3--3--3-3-3--3--3-3-|3--3--3-3-3--3--/15\-|

G|--------------------|--------------------|--------------------|--------------------|--------------------|
D|--------------------|--------------------|--------------------|--------------------|--------------------|
A|1--1--1-1-1--1--1-1-|1--1--1-1-1--1--1-1-|--------------------|--------------------|--------------------|
E|--------------------|--------------------|1--1--1-1-1--1--1-1-|1--1--1-1-1--1--1-1-|0--0--0-0-0--0--0-0-|

		      |     all these notes are sixteenths      |
G|--------------------|-----------------------------------------|--------------------|--------------------|
D|--------------------|*2-2-2-2-2-2-2-2-2-2-2-2-2-2-2-2-2-2-2-2*|--------------------|--------------------|
A|--------------------|*---------------------------------------*|3--3--3-3-3--3--3-3-|3--3--3-3-3--3--3-3-|
E|0--0--0-0-0--0--0-0-|-----------------------------------------|--------------------|--------------------|

G|--------------------|--------------------|--------------------|--------------------|--------------------|
D|--------------------|--------------------|--------------------|--------------------|--------------------|
A|5--5--5-5-5--5--5-5-|5--5--5-5-5--5--5-5-|1--1--1-1-1--1--1-1-|1--1--1-1-1--1--1-1-|--------------------|
E|--------------------|--------------------|--------------------|--------------------|1--1--1-1-1--1--1-1-|

G|--------------------|--------------------|--------------------|--------------------|--------------------|
D|--------------------|--------------------|--------------------|--------------------|--------------------|
A|--------------------|3--3--3-3-3--3--3-3-|3--3--3-3-3--3--3-3-|3--3--3-3-3--3--3-3-|3--3--3-3-3--3--3-3-| 
E|1--1--1-1-1--1--1-1-|--------------------|--------------------|--------------------|--------------------|

G|5555-5555-55-------|--------------|5s7-5s7-5s7-5s7--7--\-|------------757575|777---5-7775--55| 
D|------------88-55--|--------------|----------------------|------------------|---7---------7--| 
A|-----------------77|17\----5----\-|----------------------|5-------3-5-------|----------------| 
E|-------------------|--------------|----------------------|---5--5-----------|----------------|

G|---------------------|--------------------|------------------|-----------------|--------------|
D|*------------------3-|------------------3-|------------------|-----------------|--------------|
A|*5-------3-5---------|5-------3-5---------|5---3-5-5-------3-|5----3-5-------3-|5----3--------|
E|----5--5------5--5---|---5--5------5--5---|---5-------5--5---|---5------5--5---|---5----------|

G|-----------------|-----------------|--------------------|--------------------|--------------------| 
D|-----------------|-----------------|*-----------------3-|--------------------|------------------3-| 
A|-----------------|-----------------|*-5---3-5-5--3--3---|5-------3-5-------3-|5-------3-5---------| 
E|-----------------|-----------------|-----5------5-------|---5--5------5--5---|---5--5------5--5---| 

G|---------------------| 
D|--------------------*| 
A|5-------3-5-------3-*| 
E|---5--5------5--5----|
            

comments powered by Disqus
↑ Back to top | Queen Bass for Ride The Wild Wind. Lyrics for acoustic guitar and electric guitar. Tablatures and chords are parodies/interpretations of the original songs. You may use it for private study, scholarship, research or language learning purposes only