» » »

Put Out The Fire Tabs (ver.2)

Artists:  A B C D E F G H I J K L M N O P Q R S T U V W X Y Z # 

Put Out The Fire Tabs (ver.2)

Queen
Rating:
0/5 (0 votes)

Tabs too difficult? Try these video lessons and learn fast.
                Intro
|----------0------------|
|------3---3------------|
|--2---2---2------------|
|--0---0---0------------|
|-----------------------|
|-----------------------|

 verse figure
|-----------------------|
|--3--------22--2h32----|
|--2--------22--2--2----|
|--0--------22--2h42----|
|----4~--0--00--0--0----| x3
|-----------------------|
 
|-----------------------|
|--3--------22-----2----|  <--(also the solo rhythym
|--2--------22-----2----|        and outro)
|--0--------22-----2----|
|----4~--0--00-----0----|
|---------------3~------|


 Pre-Chorus           
|-----|---------------------3------|
|-----|---------------------3------|
|-----|----9----7---2-------0------|
|-----|----9----7---2-------0------|
|-0---|----7----5---0--(x3)-2------|
|---3-|-0-----0-------------3------|
  
 Chorus
|------------------------------------------3-2--------|
|------------------------14----------------3-3--22-2--|
|--7-7-7/9-9--2----7--9--14--7-7-7/9-9--2--0-2--22-2--|
|--7-7-7/9-9--2----7--9--14--7-7-7/9-9--2----0--22-2--|
|--5-5-5/7-7--0----5--7--12--5-5-5/7-7--0-------00-0--|
|-------------------------------------------------3---|
 
|--------------------------------------------3----2---|
|------------------------14------------------0----3---|
|--7-7-7/9-9--2----7--9--14--7-7-7/9-9--2----0----2---|
|--7-7-7/9-9--2----7--9--14--7-7-7/9-9--2----0----0---|
|--5-5-5/7-7--0----5--7--12--5-5-5/7-7--0----2--------|
|--------------------------------------------3--------|


 Intro

 Verse
 Pre-Chorus
 Chorus

 Verse
 Pre-Chorus
 Chorus

 Solo (Rhythm: same as second bit of the verse, repeated)

 Pre-Chorus
 Chorus

 Outro (Rhythm: same as second bit of the verse, repeated)
            
Tabs too difficult? Try these video lessons and learn fast.




comments powered by Disqus
↑ Back to top | Tablatures and chords are parodies/interpretations of the original songs. You may use it for private study, scholarship, research or language learning purposes only