>
 >
No-one But You

No-one But You Bass Tabs

Queen - No-one But You chords, tabs, tablatures, lyrics

Guitar lessons | Add/correct | Request | Top 50 tabs Artists:  A B C D E F G H I J K L M N O P Q R S T U V W X Y Z 0-9

No-one But You Bass Tabs – Queen

CD, Sheet music, Poster

Do you like No-one But You? Share with your friends now
Bass Tabs
No-one But You by Queen
Bass Tab


     S H        E.     H.              H.              H.            
G||-----------------|---------------|---------------|---------------|
D||-----------------|---------------|---------------|---------------|
A||-----------------|---------------|---------------|---------------|
E||-----------------|---------------|---------------|---------------|


  H.              Q     Q     Q        E   E   H         
---------------|-------------------|--14----------------|
---------------|-------12----11----|------11--12--------|
---------------|-------------------|--------------------|
---------------|-------------------|--------------------|


  E   S S  Q    S  S  E     E   S  S  Q    S  S  E     E   E   Q    S  S  E   
-----------------------|--------------------------|------------------------|
---13---14------14-13--|-----------14-------------|-----12--11------11-----|
-----------------------|-----14-14---------14-----|--------------------12--|
-----------------------|----------------------12--|------------------------|


  Q     Q.      E     E   E   Q.      E     Q     S  T T  S  S  E   E   
-------------------|---------------------|----------14------14---------|
-------12----------|---------------------|-------14------14----14------|
---------------14--|-----12--11----------|-------------------------12--|
-------------------|-----------------12--|-----------------------------|


   E   E   Q.     E     Q     Q.      E     E   S S E.  S S S E   
---------------------|-------------------|----------------9---8--|
--14-----------------|-------------------|--------------9--------|
------12-------------|-------------------|----------7------------|
----------10------9--|-------10------10--|-----10----------------|


  E.  S Q    S S E     E  E  Q.     E     E  E  Q.     E     Q    Q.     E   
-------9-----------|------------------|-----0------------|-----------------|
-----9--------9----|-----0------------|--2---------------|-------0------0--|
----------------7--|--------3------3--|--------2---------|-----------------|
-------------------|------------------|---------------3--|-----------------|


  E  E  Q.     S S    S S E  E.  S S S E     Q    Q.     E   
-------------------|----------------------|-----------------|
--2--4-------------|---------------2------|-----------------|
--------4------2-2-|----2-2------2--------|-------0------2--|
-------------------|---------0---------4--|-----------------|


  E  E  E.  S T T T T E     E  E  Q.     E     E  E  E.  S T T T T E   
-------------------------|------------------|-------------------------|
--------------2----------|------------------|--------------2----------|
-----2------2---2--------|--------0------2--|-----2------2---2--------|
--2-----0-------------4--|-----4------------|--2-----0-----------0-4--|


  S S T S. Q    S S E     S E.  Q.     E     Q    Q    Q       H.            
----------6----4---3--|--------4------4--|-----------------|---------------|
-----6----------------|------------------|-------4---------|---------------|
---6---6--------------|------------------|-----------------|---------------|
----------------------|------------------|-----------------|---------------|


  E   S S  Q.      E     Q    Q.     E     E  S S E.  S S S E   
----------------------|-------7------7--|-----8---------9---8--|
-----11---12------11--|-----------------|-------------9--------|
----------------------|-----------------|---------7------------|
----------------------|-----------------|----------------------|


  E.  S Q.     E     E  E  Q.     E     Q    Q.     E     E  S S Q.     E   
--------9---------|------------------|--------------4--|-----2---1---------|
------9-----------|-----0------------|-------0---------|----------------2--|
---------------7--|--------4------0--|-----------------|-------------------|
------------------|------------------|-----------------|-------------------|


  E  E  E.  S E  E     E  E  E  S S S E.     E  E  Q    S S E   
-----4--2---2-2--2--|--2--2-------7---6---|-----------------7--|
--------------------|--------0--7---------|-----7---------7----|
--------------------|---------------------|--------5----5------|
--------------------|---------------------|--------------------|


  E  S S Q    T T T T E     Q    Q    S S S S    E  E  Q.     E   
--------------------9----|----------------9---|------------------|
----------------9--------|------------6-9-----|-----0------------|
-----6---7------------6--|-------7------------|--7-----3------3--|
-------------------------|--------------------|------------------|


  E  E  Q.     E     Q    Q.     E     E  E  Q.     S S    S S E  E.  S S S E   
-----0--4------1--|-----------------|-------------------|------------------|
--2---------------|-------0------0--|--2--4-------------|---------------2--|
------------------|-----------------|--------4------2-2-|----2-2------2----|
------------------|-----------------|-------------------|---------0-------4|


  Q    Q.     E     E  E  E.  S T T T T E     E  E  Q.     E   
-----------------|-------------------------|------------------|
-----------------|--------------2----------|------------------|
-------0------2--|-----2------2---2--------|--------0------2--|
-----------------|--2-----0-----------0-4--|-----4------------|


  E  E  H           E.  S Q    S S E     Q    Q    S  S E   
-----------------|--------6----4---3--|--------------11----|
--------0--------|--------------------|-------9---------9--|
--2--2-----------|------2-------------|--------------------|
-----------------|--0-----------------|--------------------|


  S  S  T  T T  T  H           E  E  H           E  S S E.  E.  E   
----11-16-------------------|-----------------|-----6---7-------8--|
----------16----------------|-----9-----------|--------------------|
---------------14-14--------|-----------------|--------------------|
----------------------------|--------7--------|--------------------|


  S E.  Q.     E     Q    Q.     E     E   E  H           E  E  E.  S S S E   
------9------7--|-------9------9--|-----10-----------|------------4-9------|
----------------|-----------------|------------------|---------------------|
----------------|-----------------|------------------|--------7---------6--|
----------------|-----------------|---------7--------|--7--7---------------|


  Q    Q    E  E     E  E  E.  S E  E     Q    Q.     E   
------------------|--------------------|-----------------|
------------7-----|--------------4-----|-----------------|
---------------6--|-----6------4----1--|-------2------4--|
------------------|--------2-----------|-----------------|


  E  E  E.  S T T T T E     E  E  Q.     E     E  E  E.  S T T T T E   
-------------------------|------------------|-------------------------|
--------------4----------|------------------|--------------4----------|
-----4------1---4-----1--|-----1--2------4--|--4--4------4---4-----1--|
--4-----2-----------2----|------------------|--------2-----------2----|


  S S T T T T Q    E  E     Q    E  E  Q       E  T T S Q.     E   
------3------------------|------------------|---------------------|
----3---3-----1----------|------------------|---------------------|
------------1------4--3--|-------4-----4----|-----4---4-3---------|
-------------------------|------------------|---------------------|


  Q    H           Q    H           Q    H           H        Q     
----------------|----------------|----------------|----------------|
----------------|----------------|-------4--------|-----------4----|
-------1--------|-------4--------|----------------|----------------|
----------------|----------------|----------------|----------------|


  H.             
---------------||
---------------||
---------------||
---------------||




Duration Legend
---------------
W - whole
H - half
Q - quarter
E - 8th
S - 16th
T - 32nd
X - 64th
. - note dotted
|-n-|  - n-tuplets





Comments


Popular Queen tabs & chords
Get Down, Make Love Bass Tabs
Sail Away Sweet Sister Chords
We Believe Chords
Breakthrough Tabs
Long Away Intro Tabs
Millionaire Waltz Tabs
More Of That Jazz Tabs
Rain Must Fall Tabs
Las Palabras De Amor Ukulele
No One But You Ukulele


Song lyrics



↑ Back to top | Tablatures and chords are parodies/interpretations of the original songs. You may use it for private study, scholarship, research or language learning purposes only
© 2014 AZChords.com Contact us | Privacy policy | DMCA | Add/correct tabs | Request tabs | Top 50 tabs