» » »

Nevermore End Bass tabs (ver.1)

Artists:  A B C D E F G H I J K L M N O P Q R S T U V W X Y Z # 

Nevermore End Bass tabs (ver.1)

Queen
Rating:
0/5 (0 votes)

Hard to play? Try these video lessons and learn fast.
                You send me to the path of Nevermore. When you say you didn't love my 
anymore
G|----------------------------------------------------------------------------------------|
D|------------------------------10--------------------------------------------------------|
A|--10-----------------------------------------12-------------------------------13-----12-|
E|-----------------------------------------------------------------------10--10-----10----|


G|-----------------------------------------------------------|
D|-----------12----10----------------------------------------|
A|-----12--------------------------8-------------------8-----|
E|--10-------------------6----6-----------8--8--8--8-8-------|
            
Hard to play? Try these video lessons and learn fast. | Correct




comments powered by Disqus
↑ Back to top | Tablatures and chords are parodies/interpretations of the original songs. You may use it for private study, scholarship, research or language learning purposes only