» » »

Mother Love Bass tabs (ver.1)

Artists:  A B C D E F G H I J K L M N O P Q R S T U V W X Y Z # 

Mother Love Bass tabs (ver.1)

Queen
Rating:
0/5 (0 votes)

Hard to play? Try these video lessons and learn fast.
                Mother Love by Queen
Tuneing is G,D,A,E

drum intro

G|--------------------------------------|
D|--------------------------------------|
A|--------------------------------------|
E|-3-3--3-3---3-3--3-3---3-3--3-3---3-3-|


|--------------------------------------------------|
|--------------------------------------------------|
|--------------------------------------------------|
|--3-3---3-3--3-3---3-3--3-3---3-3--3-3---3-3--3-3-|


|-----------------------------------------------|
|-----------------------------------------------|
|-6-6--6-6---6-6--6-6--6-5----------------------|
|--------------------------8-8--8-8---8-8--8-8--|

   repeat 1X
|-------------------------------------------------------|
|-------------------------------------------------------|
|-------------------------------------------------------|
|-3-3--3-3---3-3--3-3---3-3--3-3---3-3--3-3---3-3--3-3--|


|-------8--8/10--8-------------8------8-7-------------------------------|
|----8--------------8-----8--------8-------10---------------------------|
|-6--------------------6-----------------------10-----------------------|
|--------------------------------------------------8--8----8----8---8/--|


|-----------------------------------------------|
|-----------------------------------------------|
|-----------------------------------------------|
|-3-3--3-3---3-3--3-3---3-3--3-3---3-3--3-3-----|

|----------------------------------------------------------------|
|----------------------------------------------------------------|
|6-6--6-6---3-3--3-----------------------------------------------|
|---------------------6---5-5--5----------------------6---5-5--5-|


|---------------------------------------------------------------------------|
|------------------------------------------------------------------------4--|
|5-5--5-5------3-3--3-3--5-5--5-5---6-6--6-6---5-5--5---6-6--6-6---4------5-|
|--------3-33-3------------------------------8--------6----------8----6-----|

      repeat
|-----------------------------------------------------------------|
|-----------------------------------------------------------------|
|-----------------------------------------------------------------|
|-3-3--3-3---3-3--3-3---3-3--3-3---3-3--3-3---3-3--3-3---3-3--3-3-|


|-----8-8/10--8-------8/10-8-----------------------8-7---------------------|
|--8------------8---8--------8-8-----------------8-----10------------------|
|6----------------6---------6---6--6---6--6----6----------10---------------|
|-----------------------------------------------------------8--8--8---8--8-|


|---------------------------------|
|---------------------------------|
|---------------------------------|
|-3-3--3-3---3-3--3-3---3-3--3-3--|

|--------------------------------------------------------|
|--------------------------------------------------------|
|--------------------------------------------------------|
|---3-3--3-3---3-3--3-3---3-3--3-3---3-3--3-3---3-3--3-3-|

|----------------------------------------------------------------------------|
|----------------------------------------------------------------------------|
|3-3--3-3---3-3--3-3--3-3--3-3--3-3--3-3--5-5--5-5--3-3--3-3--5-5--5-3-------|
|----------------------------------------------------------------------6---5-|


|----------------------------------------------------------------|
|----------------------------------------------------------------|
|----------------------------------------------------------------|
|-3-3--3-3---3-3--3-3---3-3--3-3---3-3--3-3---3-3--3-3--3-3--3-3-|


|---------------8-------10-8--------------------------|
|------------8---------------8------------------------|
|-6-6--6-6--------6--6---------6----------------------|
|--------------------------------8-8--8-8---8-8---8/--|

      Repeat 1 X
|-----------------------------------------------------------------|
|-----------------------------------------------------------------|
|-----------------------------------------------------------------|
|-3-3--3-3---3-3--3-3---3-3--3-3---3-3--3-3---3-3--3-3---3-3--3-3-|
            
Hard to play? Try these video lessons and learn fast. | Correct




comments powered by Disqus
↑ Back to top | Tablatures and chords are parodies/interpretations of the original songs. You may use it for private study, scholarship, research or language learning purposes only