>
 >
Misfire

Misfire Bass Tabs

Queen - Misfire chords, tabs, tablatures, lyrics

Guitar lessons | Add/correct | Request | Top 50 tabs Artists:  A B C D E F G H I J K L M N O P Q R S T U V W X Y Z 0-9

Misfire Bass Tabs – Queen

CD, Sheet music, Poster

Do you like Misfire? Share with your friends now
Bass TabsChordsUkulele
                        MISFIRE - bass line 


# Every available version of this song that I have seen has been very wrong. Here 
it is in it's correct format and using this one I'm sure you will find it a lot 
easier to play. Enjoy #



  Acoustic guitar intro:  G   C   G   C   G   C   G    D....


(Band entry)
        G              C         G                   C

-------------2-3-4----------------------2-3-4-----------
--------------------------------------------------------
----------------------3----------------------------3----
--(2)--3--------------------2--3------------------------

   (2) (2)   (1 2 3)  (2)  etc......

      G                 C        G            D

-------------2-3-4------------------2-3-4----------------
---------------------------------------------------------
----------------------3---------------------5---3--2--0--
--2--3----------------------2--3-------------------------
                                             (4) (2  1  0)

  Verse:
      G                C         G                   C

-------------2-3-4----------------------2-3-4-----------
--------------------------------------------------------
----------------------3----------------------------3----
-----3----------------------2--3------------------------

      G                C         G                   D

-------------2-3-4----------------------2-3-4-----------
--------------------------------------------------------
----------------------3----------------------------5----
--2--3----------------------2--3------------------------




   Em                               A      C
  
-------------------------------------------------
-------------------------------------------------
--7-7---5--7--5---7--5-7--7-5--------------------
------------------------------7----5--5---8------
 
 "...Don't you know honey......."

   Em                                 A     C
  
------------------------------------------------7-8-9-----
----------------------------------------------------------
--7-7---5--7--5---7--5-7---7-5----------------------------
--------------------------------7----5--5--8--------------

  "....It's always hit-or-miss...."

   Em                                A      C
  
------------------------------------------------
------------------------------------------------
--7-7---5--7--5---7--5-7---7-5------------------
-------------------------------7----5--5---8----

  ".........Got to hold on tight....."


  Verse:
      G                C         G                   C

-------------2-3-4----------------------2-3-4-----------
--------------------------------------------------------
----------------------3----------------------------3----
--2--3----------------------2--3------------------------

      G                C         G                   D

-------------2-3-4----------------------2-3-4-----------
--------------------------------------------------------
----------------------3----------------------------5----
--2--3----------------------2--3------------------------


 

  



    Solo break
    Eb                 Bb       Db      Ab                  Db    Eb    F......

-------------------------------------------------------------------------
-------------------------------------------------------------------------
---6--6---6----6--6-6-----------4-------------------------4-----6-----8--
-----------------------6----6---------4--4----4---4-4-4------------------


  
   Verse 3

       Bb             Eb        Bb           Eb   

------------5-6-7-----------------5-6-7----------------
-------------------------------------------------------
---------------------6----------------------6----------
---5--6--------------------5--6------------------------


       Bb             Eb        Bb           F   

------------5-6-7-----------------5-6-7-----------------
--------------------------------------------------------
---------------------6--------------------8--6--5-------
---5--6--------------------5--6--------------------8----


   Gm                                    C       Eb

--------------------------------------------------------10-11-12-
--------------------------------------------10-------------------
-10---10-10-----10-----10----10-8--------------------------------
----------------------------------10-----8-------11--------------

  ".....Your gun is loaded.........."
  
   Gm                                     C           Eb 
---------------------------------------------10-11-12----10-11-12-
------------------------------------------------------------------
-10---10-10----10----8--10----10-8--------------------------------
-----------------------------------10----8------------------------

  "......there's only 1 bullet..........."

    Gm                                   C       Eb

----------------------------------------------------------
----------------------------------------------------------
-10---10-10---10----x-10----10-8--------------------------
---------------------------------10-----8--8----11--------

 "....got to time it right........"  


      Bb                         C

-----------------------------------------------------------
-----------------------------------------------------------
-----------------------------------------------------------
-5--6--6----6-----6--6--6-----8--8---8----8--8---8---------
    sl
  "...Come on take a shot........fire me higher............". 
    
   Eb                            Eb
-------------------------------------------------------------
------------------------------------5---5-5---6---6---7---7--
--6--6---6-----6--6-----------6--6---------------------------
--------------------------(6)--------------------------------

 "..Don't you miss this time....please don't    Misfire.........."


      Bb           Eb        Bb            Eb 

---------5-6-7-----------------5-6-7-------------
-------------------------------------------------
------------------6----------------------6-------
----6-------------------5--6---------------------



      Bb           Eb        Bb            Eb 

---------5-6-7-----------------5-6-7-------------
-------------------------------------------------
------------------6----------------------6-------
--5--6------------------5--6---------------------



     C               F        C             F

----------7-8-9-----------------7-8-9-----------------
------------------------------------------------------
--------------------8---------------------8-----------
--7--8-------------------7--8-------------------------




      C#             F#       C#            F#

----------8-9-10-----------------8-9-10---------------
.----------------------------------------------------. repeat
.-------------------9---------------------9----------.
--8--9-------------------8--9-------------------------



     D#                 G#         D#                 G#

-------------10-11-12-------------------10-11-12----------
.--------------------------------------------------------.repeat
.----------------------11---------------------------11---.
--10--11---------------------10--11-----------------------



    D#               G#
------------------------------------------
--------------------------11---13---11----
--------10-13-10---11---------------------
--11--------------------------------------



    D#               G#
------------------------------------------
--------------------------11---13---11----
--------10-13-10---11---------------------
--11--------------------------------------



    D#               G#
------------------------------------------
--------------------------10--11--12------
--------10-13-10---11---------------------
--11--------------------------------------



    D#               G#
------------------------------------------
--------------------------11---13---11----
--------10-13-10---11---------------------
--11--------------------------------------





Comments


Popular Queen tabs & chords
My Baby Does Me 1 Bass Tabs
Bijou Chords
The Prophet Song Chords
We Will Rock You 1 Chords
Another One Bites The Dust Drum Tabs
Good Old Fashioned Lover Boy (Solo) Tabs
These Are The Days Of Our Lives 1 Tabs
Great Pretender Ukulele
Innuendo Ukulele
Keep On Passing The Open Windows Ukulele


Song lyrics



↑ Back to top | Tablatures and chords are parodies/interpretations of the original songs. You may use it for private study, scholarship, research or language learning purposes only
© 2014 AZChords.com Contact us | Privacy policy | DMCA | Add/correct tabs | Request tabs | Top 50 tabs