» » »

Made In Heaven Tabs (ver.3)

Artists:  A B C D E F G H I J K L M N O P Q R S T U V W X Y Z # 

Made In Heaven Tabs (ver.3)

Queen
Rating:
0/5 (0 votes)

Hard to play? Try these video lessons and learn fast.
                Hey there,
this are my first tabs. I couldn't find suitable ones for the solo, so i decided to 
them on my own.

Thank you and enjoy it.
Please assess them.


Queen - Made In Heaven (Solo) @ 02:58
Tuning: Standard

e|-----------------------------------------------|
B|---10b12-9----------9-11-12-14-14b16-14--------|
G|-----------4-4/8-11----------------------------|
D|-----------------------------------------------|
A|-----------------------------------------------|
E|-----------------------------------------------|

e|--------------------11-13-14-11----------11-11---|
B|---7-9-11-12-9-12-------------12----12-----------|
G|-----------------------------------11------------|
D|-------------------------------------------------|
A|-------------------------------------------------|
E|-------------------------------------------------|


e|---12-11-9--[1/13]*--13-13-13-13-14-16-17------|
B|------------[2/14]*----------------------------|
G|-----------------------------------------------|
D|-----------------------------------------------|
A|-----------------------------------------------|
E|-----------------------------------------------|

* This riff is played in the Song, without, it's a very long brake and it sounds boring..

/ = slide
b = bend string up

vibrate every "longer" tab, if you like
            
Hard to play? Try these video lessons and learn fast. | Correct




comments powered by Disqus
↑ Back to top | Tablatures and chords are parodies/interpretations of the original songs. You may use it for private study, scholarship, research or language learning purposes only