» » »

Queen, Long Away Bass tabs (ver.2)

Artists:  A B C D E F G H I J K L M N O P Q R S T U V W X Y Z # 

Long Away Bass tabs (ver.2)

Queen Tabs
Rating:
0/5 (0 votes)
Long Away lessons Tabs too difficult? Try these video lessons and learn fast
                "(2)
|----------|----------|
|----------|----------|
|-0-0------|-0-0------|
|----------|----------|

|-*-------*-------*-------*-------*-------*-------*-------*-------|
|-7-7-7-7-7-7-7-7-7-7---------------------------7---------6-7-9---|
|---------------------7-7-7-7-7-7-5-5-5-5-5-7-9-----------------5-|
|-------------------------------------------------5-5-5-----------|

|-----------------------------------------------------------------|
|-7-7-7-7-7-7-7-7-7-7---------------------------7---------7-7-6-7-|
|---------------------7-7-7-7-7-0-5-5-5-5-5-7-9-------------------|
|-------------------------------------------------5-5-5-5---------|

|---------7-6---4----------___---------------9------------------------|
|-----4-7----------------4-7/9-7---6-----6-9------------------7-7-7-7-|
|-5-5------------------5-------------7-7-------7\---------------------|
|------------------7-7--------------------------------5-5-5-5---------|

|---------7-6---4---------___-------9-------7--------9-9-9-9-7\6/7---|
|-----4-7---------------4-7/9-7---6-------9---9--------------------7-|
|-5-5-----------------5-------------------------9\-7-----------------|
|-----------------7-7------------------------------------------------|

|-----------------------------------------------------------------------|
|-----------------------------------------------------------------------|
|---------------------7-7-7-7-7-7-5-5-5-5-5-5-5-0-8-8-8-8-8-10-12-0-0---|
|-5-5-5-5-5-5-5-5-5-5---------------------------------------------------|

1:07
|----------|----------|----------|
|----------|----------|----------|
|-0-0------|-0-0------|-0-0------|
|----------|----------|----------|

|-7-7-7-7-7-7-7-7-7-7-7-7-7-7-7-------|---7-----7---7---7-------------|
|-------------------------------7-----|-7-----------------------------|
|---------------------------------0---|-----5---------------7---0-0---|
|-------------------------------------|-------------------------------|

|--*-------*-------*-------*-----9-*-------*-------*-------*-------|
|-/7-7-7-7-7-7-7-7-7-7-------9-11----------------7-7-7-7-7-7-7-7-7-|
|----------------------7-7-7-------5-5-5-5-5-7-9-------------------|
|------------------------------------------------------------------|

|------------------------------------------------------------------|
|-7-7-7-7-7-7-7-7-7-7---------------------------7---------7-7-7777-|
|---------------------7-7-7-7-7-7-5-5-5-5-5-7-9--------------------|
|-------------------------------------------------5-5-5-5----------|

|---------7-6---4----------___---------------------------------------|
|-----4-7----------------4-7/9-7---6-------------------------7-7-----|
|-5-5------------------5-------------0-7-7-7-7-7-7-7-------------997-|
|------------------7-7-------------------------------5-5-5-5---------|

|---------7-6---4----------___-----___------------------|
|-----4-7----------------4-7/9-7---7p6-----------9-----\|
|-5-5------------------5--------------------------------|
|------------------7-7-----------------7----------------|

2:08
|-14-14-14-14-14-14-14-14-14-14-14-------*-----------|
|----*-----------*-----------*-----14-14-14-14-14-14-|
|----------------------------------------------------|
|----------------------------------------------------|

|-------------____------14-------------13-14-16------|
|-12-12-12-12-121414-16-------------------------14---|
|--------------------------12-12-12-12---------------|
|----------------------------------------------------|

|-14-14-14-14-14-14-14-14-14-14-14-------------------|
|----------------------------------14-14-14-14-14-14-|
|----------------------------------------------------|
|----------------------------------------------------|

|----------------------14--------------------------|
|-12-12-12-12-12-14-16-----------------------------|
|-------------------------12-12-12-12-12---12129-7-|
|--------------------------------------------------|

|---------7-6---4----------___---------------9------------------------|
|-----4-7----------------4-7/9-7---6-----6-9------------------7-7-7---|
|-5-5------------------5-------------7-7-------7\-------------------5-|
|------------------7-7--------------------------------5-5-5-5---------|

|---------7-6---4----------___-------9-----------7---------------------|
|-----4-7----------------4-7/9-7---6---------9-9-------------7-6-7-\6--|
|-5-5------------------5---------------------------9-----------------7-|
|------------------7-7-------------------------------5-5-5-5-----------|

|------------------------------------------------------------------------|
|------------------------------------------------------------------------|
|---------------------7-7-7-7-7-7-5-5-5-5-5-5-5-0-8-8-8-8-8-10-12-0-0----|
|-5-5-5-5-5-5-5-5-5-5----------------------------------------------------|

3:00
|----------|----------|
|----------|----------|
|-0-0------|-0-0------|
|----------|----------|

|-____-------------------------------------------____-|
|-7/12-12-12-12-12-12-12-12-12-12-12-12-12-12-12-12\7-|
|-----------------------------------------------------|
|-----------------------------------------------------|

|---------|----|-------/6-7------10-------------|
|-7-7-7-7-|-0/-|-7-7-7--------------------------|
|---------|-/0-|--------------------------0-0---|
|---------| 6X |--------------------------------|
"            

comments powered by Disqus
↑ Back to top | Queen Bass for Long Away. Lyrics for acoustic guitar and electric guitar. Tablatures and chords are parodies/interpretations of the original songs. You may use it for private study, scholarship, research or language learning purposes only