>
 >
Life Is Real

Life Is Real Guitar Tabs

Queen - Life Is Real chords, tabs, tablatures, lyrics

Guitar lessons | Add/correct | Request | Top 50 tabs Artists:  A B C D E F G H I J K L M N O P Q R S T U V W X Y Z 0-9

Life Is Real Guitar Tabs – Queen

CD, Sheet music, Poster

Do you like Life Is Real? Share with your friends now
Tabs
PROPS GO TO: Max Guitarplayer

* Queen : Life is real (song for Lennon) (Mercury)
  -------------------------------------


E |--15----15----15----15--|
B |------------------------|
G |------------------------|
D |------------------------|
A |------------------------|
E |------------------------|


     G          Bm/F#      Em         D
E |--------3----------3----------3----------3------||
B |--------3----------3----------3----------3------||
G |-----0----------0----------0----------0-----0---||
D |-----------------------------------0------------||
A |------------------------------------------------||
E |--3----------2----------0-----------------------||


 (G)       (Bm/F#)  (Em)     (D)
Guilt stains, on my pillow
 (G)        (Bm/F#) (Em)     (D) 
Blood on my terraces


     C           Bm          C           A
E |--------0-----------0-----------0-----------0-----|
B |--------1-----------1-----------1-----------1-----|
G |-----0-----0-----0-----0-----0-----0-----0-----0--|
D |--------------------------------------------------|
A |--3-----------2-----------3-----------0-----------|
E |--------------------------------------------------|


 (C)          (Bm)
Torsos in my closet
 (C)            (A)
Shadows from my past


         G     Bm/F#
Life is real
         Bm
Life is real
         D
Life is real
    G 
So real


(Synth:)

E |---------------------|
B |-----------10--8~----|
G |-----7--9------------|
D |--9------------------|
A |---------------------|
E |---------------------|


 (G)   (Bm/F#)   (Em)    (D)
Sleeping, is my leisure
 (G)  (Bm/F#)    (Em)    (D)
Waking up in a minefield


(C)              (Bm)
Dream is just a pleasure dome
(C)                 (A)
  
Love is a roulette wheel


         G     Bm/F# 
Life is real
         Bm    D
Life is real
         F/C   C
Life is real
    G
Oh yeah


    Bm         Bb aug.
Success is my breathing space
   D/A           G
I brought it on myself

I will price it, I will cash it
       F#7
I can take it or leave it


 D                D11
Loneliness is my hiding place
 Bm 
Breastfeeding myself
 B5       Bb5   A5                   
What more can I say
        Em7 (rake up) 
I have swallowed the bitter pill
       G               A
I can taste it, I can taste it


 N.C.         D  D11 
Life is real
 N.C.         D  D11 
Life is real 
         C    
Life is real




(Electric guitar:)

     C           G    F#m       Em     D 
   (trill)                               (trill)
E |--15h17p--||----------------------------------|
B |----------||----------------------------------|
G |----------||--7~------------------------------|
D |----------||----------9b10r--7--9~------9h10--|
A |----------||----------------------------------|
E |----------||----------------------------------|

     G         F#m         Em       D         (C)
E |----------------------------------------||--------|
B |------------------------8-10------------||--------|
G |-------9--7------9--11-------9~-----7-9-||--------|
D |----------------------------------------||--------|
A |----------------------------------------||-10~----|
E |----------------------------------------||--------|

(Acoustic guitar:)

     C                 Bm            C               A                (G)
E |--------------------------------------------------------------------7~--|
B |-------------------------------------------------7h8----7-10-8-7-8------|
G |--------------------------------------5--8/9-8h9------------------------|
D |------------------------------------5-----------------------------------|
A |--7----5-------5----5h7-5h7----5--7-------------------------------------|
E |---------8-7-8----------------------------------------------------------|

(Synth:)

           G    Bm/F#       Bm     D          C
E |------------------------------------------------------------|
B |-------------------------------------------8b10-8b10r-8~----|
G |--9--7----------------7-9b11---------7--9-------------------|
D |--------9~---------9----------------------------------------|
A |------------------------------------------------------------|
E |------------------------------------------------------------|

(Acoustic guitar:)

E |--0----------------|
B |-----3--1----------|
G |-----------0-------|
D |-------------------|
A |--------------3----|
E |-------------------|


 (G) (Bm/F#)      (Em)       (D)
Music, will be my mistress
 (G) (Bm/F#)       (Em)      (D)
     Loving like a whore


(C)          (Bm)
Lennon is a genius
(C)             (A)
Living in every pore


         G    Bm/F#
Life is real
         Bm   D
Life is real
         C
Life is real


   (G)          (Bm/F#)
So real
        (G)     (Bm/F#)
Life is cruel
          (G)   (Bm/F#)
Life is a bitch
        (D)      
Life is real 

              (harm.)
E |-----2--------------------------------------|
B |----3---------------------------------------|
G |---2----------------------------------------|
D |--0-------------------------------------|
A |--------------------------------------------|
E |--------------------------------------------|


   (G)    (Bm/F#)    (Em)    (D)    (Etc.)
So real
Life is real
Life is real      yeah
Life is real




(Chords:)

     Bb aug.   D11
E |---2---------0------|
B |---3---------1------|
G |---3---------0------|
D |---0---------0------|
A |---1----------------|
E |--------------------|



*******************************************************************************

                                           Keep rockin !


*******************************************************************************





Comments


Popular Queen tabs & chords
Liar 2 Bass Tabs
A Human Body Chords
Millionaire Waltz Drum Tabs
Bohemian Rhapsody- Lyrics Tabs
Crazy Little Thing Called Love 1 Tabs
Hammer To Fall (Solo) Tabs
Jealousy 1 Tabs
Keep Yourself Alive Tabs
Let Me Live 1 Tabs
Who Needs You Tabs


Song lyrics



↑ Back to top | Tablatures and chords are parodies/interpretations of the original songs. You may use it for private study, scholarship, research or language learning purposes only
© 2014 AZChords.com Contact us | Privacy policy | DMCA | Add/correct tabs | Request tabs | Top 50 tabs