» » »

Killer Queen Tabs (ver.6)

Artists:  A B C D E F G H I J K L M N O P Q R S T U V W X Y Z # 

Killer Queen Tabs (ver.6)

Queen
Rating:
0/5 (0 votes)

Tabs too difficult? Try these video lessons and learn fast.
                Killer Queen as recorded by Queen
Standard Tunin

Below: Hold full
bend till after the
2nd note
e|----------------|5-6-5----|------3----|3----------|---------------|
B|8fb~~8-8-6p5----|---8-6p5-|6fpb-6-4p3-|-4-6-3h4p3-|---------------|
G|------------7~~~|--------7|----------5|----------5|---------------|
D|----------------|---------|-----------|-----------|3-3~~~~-3-3~~~~|
A|----------------|---------|-----------|-----------|---------------|
E|----------------|---------|-----------|-----------|---------------|

e|--------------------|13-13-10h11p10-8|--------------------|
B|11fb-11fb-11-11fpb-8|----------------|11fb-11fb-11-11fpb-8|
G|--------------------|----------------|--------------------|
D|--------------------|----------------|--------------------|
A|--------------------|----------------|--------------------|
E|--------------------|----------------|--------------------|

e|-----------------------------13-15~~~13~~|11-13-15-11-13fpb-11--11---------|
B|15-15-12h13p12-15p13-16p15-16------------|--------------------12--12-11-13-|
G|-----------------------------------------|---------------------------------|
D|-----------------------------------------|---------------------------------|
A|-----------------------------------------|---------------------------------|
E|-----------------------------------------|---------------------------------|

e|--13fb-13fb13~~~~|----17--------------|
B|11---------------|17fb--17fb-17fb-17fb|Last bend is
G|-----------------|--------------------|full plus one half
D|-----------------|--------------------|
A|-----------------|--------------------|
E|-----------------|--------------------|

Key
p=pulloff
h=hammer on
~=let ring
fb=full bend
fpb=full prebend
            
Tabs too difficult? Try these video lessons and learn fast.




comments powered by Disqus
↑ Back to top | Tablatures and chords are parodies/interpretations of the original songs. You may use it for private study, scholarship, research or language learning purposes only