>
 >
Killer Queen

Killer Queen Bass Tabs

Queen - Killer Queen chords, tabs, tablatures, lyrics

Guitar lessons | Add/correct | Request | Top 50 tabs Artists:  A B C D E F G H I J K L M N O P Q R S T U V W X Y Z 0-9

Killer Queen Bass Tabs – Queen

CD, Sheet music, Poster

Do you like Killer Queen? Share with your friends now
Bass TabsChordsChords v2TabsTabs v2Tabs v3Tabs v4Tabs v5Tabs v6Ukulele
Queen
Killer Queen
bass tab


  intro
|------------------------------------|
|------------------------------------|
|x-----x-----x-----x-----x-----x-----|
|------------------------------------|

  verse 1                                 - piano -
|------------------------|------------------------|------------------------|------------------------|
|------------------------|-----------------10-7---|------------------------|------------^10-8-------|
|------------------------|----------------------10|------------------------|-----------------10-9-8-|
|------------------------|------------------------|8-----------------------|------------------------|

|------------------------|------------------------|------------------------|------------------------|
|------------------------|------------------------|------------------------|------8-----8-----------|
|6-----6-----5---------5-|4-----4-----------------|------------------8-----|8---------8-------------|
|------------------------|------------4-----4-----|4-----4-----6---------6-|----6-------------------|

            |------------|------------------------|------------------------|------------------------|
            |------------|------------------------|8---------8-------------|------------5-----------|
            |------6-7-8-|10--------10------------|------------6---------6-|5---------5-------8-----|
            |------------|------------8--------8--|------------------------|------------------------|

  chorus 1
|------------------------|------------------------|------------------------|
|------------------------|------------------------|------------7-----------|
|------------5---------8-|10--------10----------8-|10--------8-------------|
|6---------6-------------|------------10----------|------------------10--8-|

|------------------------|------------------------|
|------------9-----10/---|17--15------------------|
|10----12----------------|------------------------|
|------------------------|------------------------|

|------------------------|------------------------|------------------------|
|---------10-12--------12|----------8-10----------|10--8-------------------|
|12----------------------|10----------------------|------------------------|
|------------------------|------------------------|------------------------|

|------------------------|------------------------|------------------------|------------------------|
|------------------------|----------------1-------|------------------------|------------8-----8---10|
|8-----------------------|------------------3-0---|------------1-----3/----|8---------------8-------|
|------------------------|----------------------3-|1---------1-----3-------|------------------------|

  verse 2
|------------------------|------------------------|------------------------|------------------------|
|------------------------|------------------------|10----------------------|------------^10-8-------|
|------------------------|------------------------|------------------------|-----------------10-9-8-|
|------------------------|------------------------|------------------------|------------------------|

|------------------------|------------------------|------------------------|------------------------|
|------------------------|------------------------|------------------------|------8-----8-----------|
|6-----6-----5-----5-----|4-----4---4-------------|------------------8-8---|8---6-----8-------------|
|------------------------|------------4-----4-----|4-----4-----6---------6-|------------------------|

            |------------|------------------------|------------------------|10-9-8-7----------------|
            |------------|------------------------|8-----8---8-------------|--------10-8------------|
            |------------|10--------10------------|----8---8---6-----------|------------10----8-----|
            |------------|------------8-----------|------------------------|----------------8-------|

  chorus 2
|------------------------|------------------------|------------------7-----|
|------------------------|------------------------|------------7---10----10|
|------------5---------8-|10--------10----------8-|10--------8-------------|
|6---------6-------------|------------10----------|------------------------|

|------------------------|------------------------|
|------7-----9-----10/---|17--15------------------|
|10----------------------|------------------------|
|------------------------|------------------------|



    solo
|------------------------|------------------------|------------------------|------------------|
|---------10-12----------|---------10-12----------|----------8-10----------|----------8-10\---|
|12----------------------|12----------------------|10----------------------|10--------------8-|
|------------------------|------------------------|------------------------|------------------|

|------------------------|------------------------|------------------------|------|
|------------------------|------------------------|------------------------|------|
|8---8-------------------|8---8-------------------|8---8-------------------|------|
|------------------------|------------------------|------------------------|------|

|------------------------|------------------------|------------------------|------------------------|
|------------------------|--------------------7---|------------------------|------------^10-8-------|
|------------------------|----------------------10|------------------------|-----------------10-9-8-|
|------------------------|------------------------|8-----------------------|------------------------|

|------------------------|------------------------|------------------------|------------------------|
|------------------------|------------------------|------------------------|------8-----8-----------|
|6-----6-----5-----5-----|4-----4---4-------------|------------------8-----|8---------6-------------|
|------------------------|------------4-----4-----|4-----------6---------6-|------------------------|

            |------------|------------------------|------------------------|
            |------------|8-----8-8-8-8-----8-----|8-----------------------|
            |------------|----------------------8-|------------------------|
            |------------|------------------------|------------------------|

  verse 3
|------------------------|------------------------|------------------------|------------------------|
|------12----10----12--12|------12----10----------|--------------13--------|--------------13--------|
|10--------10------------|10--------10------------|13--11-13-11------------|13--11-13-11----------13|
|------------------------|------------------------|------------11----------|------------11----------|

|------------------------|------------------------|------------------------------------|
|12----------------------|------------------------|------------------------------------|
|------------10----8-----|------------------------|------------------------------------|
|------------------------|------------1-1-1-1-1-1-|------------1-1-1-1-1-1-1-1-1-1-1---|

  chorus 3
|------------------------|------------------------|------------------------|
|------------------------|------------------------|------------7-----------|
|------------5---------8-|10--------10----------8-|10--------8-----8-------|
|6-----6---6-------10----|------------10----------|------------------10--8-|

|------------------------|------------------------|
|------------9-----10/---|17--15------------------|
|10----12----------------|------------------------|
|------------------------|------------------------|

|------------------------|------------------------|------------------------|
|---------10-12----------|----------8-10----------|10--8-------------------|
|12----------------------|10----------------------|------------------------|
|------------------------|------------------------|------------------------|

  outro
|------------------------|------------------------|------------------------|------------------|
|------------------------|------------------------|------------------------|------------------|
|------------------18\---|------------1-----3-----|------------1-----------|------------1---0-|
|1-----------------------|1---1-----1-----1-----1-|----------1-------3-----|1---------1-------|

|------------------------|
|13--13------------------|*
|------------------------|*
|------------11--11------|

  

standard tuning (EADG)

| /  slide up
| \  slide down
| h  hammer-on
| p  pull-off
| ~  vibrato
| +  harmonic
| x  Mute note

| .   incidental note (usually open string)
| ^   pre-struck note (hammer-on, pull-off)
| =   rest

display in fixed-width font
one space ("-") = 1/16 note





Comments


Popular Queen tabs & chords
Another One Bites The Dust 5 Bass Tabs
One Vision Bass Tabs
Bohemian Rhapsody Intro Chords
Fat Bottomed Girls Chords
Im Going Slightly Mad 1 Chords
Dead On Time 1 Tabs
Jesus Tabs
Mustapha 3 Tabs
White Queen Tabs
Tie Your Mother Down Ukulele


Song lyrics



↑ Back to top | Tablatures and chords are parodies/interpretations of the original songs. You may use it for private study, scholarship, research or language learning purposes only
© 2014 AZChords.com Contact us | Privacy policy | DMCA | Add/correct tabs | Request tabs | Top 50 tabs