>
 >
Is This The World We Created

Is This The World We Created Guitar Tabs

Queen - Is This The World We Created chords, tabs, tablatures, lyrics

Guitar lessons | Add/correct | Request | Top 50 tabs Artists:  A B C D E F G H I J K L M N O P Q R S T U V W X Y Z 0-9

Is This The World We Created Guitar Tabs – Queen

CD, Sheet music, Poster

Do you like Is This The World We Created? Share with your friends now
ChordsChords v2TabsUkulele
                         Is This The World We Created                           


Guitar 2 - 12 String
Transcribed and improved by Victor Kuri 



     Let ring throughout                                   
     D                                                     
     E                   E  E  E  E  E  E  E     H         
E||--5----------------------5-----5-----5-----|-----------|
B||--7----------------------7-----7-----7-----|-----------|
G||--7-------------------7--7--7--7--7--7--7--|--L--------|
D||--0----------------------0-----0-----0-----|-----------|
A||-------------------------------------------|-----------|
E||-------------------------------------------|-----------|


  D           A/D             D7          G/D           
  E  E  E  E  E   E  E  E     E  E  E  E  E   E  E  E   
--5-----5-----5------5-----|--5-----5-----3------3-----|
--7-----7-----5------5-----|--7-----7-----3---3--3--3--|
--7--7--7--7--6---7--6--7--|--5--7--5--7--4------4-----|
--0-----0-----0------0-----|--0-----0-----0------0-----|
---------------------------|---------------------------|
---------------------------|---------------------------|


  Bb          Gm7           
  E  E  E  E  E   E  E  E   
------------------0--------|
--6-----6-----6------------|
--7-----7-----0------7-----|
--8--8--8--7--8---------8--|
--8--8--------8------------|
--6------------------------|


             Rall...........................                            
  D/F#                                                                  
  E    E  E  E                               E   E  E   E     H         
----------------------------------------------------7--10--|--L--------|
---------------------------------------------7--10---------|-----------|
----------7--9---------------------------------------------|-----------|
--7----0---------------------------------------------------|-----------|
--5--------------------------------------------------------|-----------|
-----------------------------------------------------------|-----------|


    Bm                                F#m7       Em7            
    E   E   E   E   E   E   E   E     E    E  E  E   Q.     E   
|------10--10--10--10--10--10--10--|--9-------9--7---L---------|
|-------7---7---7---7---7---7---7--|--7----7-----5---L---------|
|*------7---7---7---7---7---7---7--|--9-------9--7---L---------|
|*--9---9---9---9---9---9---9---9--|--7----------5---L---------|
|----------------------------------|---------------------------|
|---7------------------------------|---------------------------|


  Bm                                F#m7       Em7           
  E   E   E   E   E   E   E   E     E    E  E  E   H         
-----10--10--10--10--10--10--10--|--9-------9--7---L--------|
------7---7---7---7---7---7---7--|--7----7-----5---L--------|
------7---7---7---7---7---7---7--|--9-------9--7---L--------|
------9---9---9---9---9---9---9--|--7----------5---L--------|
---------------------------------|-------------7---L--------|
--7------------------------------|-------------0---L--------|


  Dsus4/A          D/A                                     
  E       E  E  E  E   E  E  E     E  E  E  E  E  Q    E   
----------5--5--5--5------5-----|--5--7--3--5--2--L----L--|
----------5--5--5--3---3-----3--|--2-----3-----2--L----L--|
----------0--0--0---------------|--2-----0-----3--L----L--|
-------------------4---------4--|-------------------------|
--0-----------------------------|-------------------------|
--------------------------------|-------------------------|


  F#                        G/D                      Em7                    
  E  E  E  E  E  E  Q       Q.     E  E  E  E  E     E   E  E  E  H         
--2--3--2----------------|------------------------|---------------3--------|
--2--------5--------2----|---------3--3-----------|------------3-----------|
--3----------------------|--4------4-----4--------|---------4--------------|
--4----------------------|--5---------------5-----|--2---5-----------------|
-------------------------|--5---------------------|------------------------|
--2-----------2----------|---------3-----------2--|--0---------------------|


  D                 D        A/D D  A/D G/D              
  E  E  E  E  E  E  E  E     E   E  E   E   E  E  E  E   
--5--L--5--L--5--5--5--5--|--5------5---3---L-----3-----|
--7--L--7--L--7--7--7--7--|--5---7--5---3---L-----3-----|
--7--L--6--L--6--7--6--7--|--6---7--6---4---L-----4-----|
--0--L--0--L--0--0--0--0--|--0------0---0---L--0-----0--|
-----5-----5--------------|-----------------------------|
--------------------------|-----------------------------|


  Bm                        F#m             D           A/D           
  E  E  E  E  E  E  Q       E   E  E  E     E  E  E  E  E   E  E  E   
--2----------------------|------------5--|--5-----5-----5------5-----|
--3-----3--2-------------|--2---3--2--2--|--7-----7-----5------5-----|
--4-----4--------4-------|--2---------2--|--7--7--7--7--6---7--6--7--|
--4-----------------4----|--4---------2--|--0-----0-----0------0-----|
--2--2--------2----------|--4---------0--|---------------------------|
-------------------------|--2------------|---------------------------|


  D7          G/D             Bb          Gm7           
  E  E  E  E  E   E  E  E     E  E  E  E  E   E  E  E   
--5-----5-----3------3-----|------------------0--------|
--7-----7-----3---3--3--3--|--6-----6-----6------------|
--5--7--5--7--4------4-----|--7-----7-----0------7-----|
--0-----0-----0------0-----|--8--8-----7--8---------8--|
---------------------------|--8--8--------8------------|
---------------------------|--6------------------------|


                Rall..................              
  D/F#                                              
  E    E  E  E  E                       E  E   E    
-------------------------------------------7--10--||
----------------7----------------------10---------||
----------7--9------------------------------------||
--7----7------------------------------------------||
--5-----------------------------------------------||
--------------------------------------------------||




Duration Legend
---------------
W - whole
H - half
Q - quarter
E - 8th
S - 16th
T - 32nd
X - 64th
. - note dotted
|-n-|  - n-tuplets


Tablature Legend
----------------
L - tied note
x - dead note
g - grace note
(n) - ghost note
> - accentuded note
NH - natural harmonic
AH - artificial harmonic
TH - tapped harmonic
SH - semi harmonic
PH - pitch harmonic
h - hammer on
p - pull off
b - bend
br - bendRelease
pb - preBend
pbr - preBendRelease
brb - bendReleaseBend
\n/ - tremolo bar dip
\n - tremolo bar dive
-/n - tremolo bar Release up
/n\ - tremolo bar inverted dip
/n - tremolo bar return
-\n - tremolo bar Release down
S - shift slide
s - legato slide
/ -  slide into from below or out of upwards
\ -  slide into from above or out of downwards
~ - vibrato
W - wide vibrato
tr - trill
TP - tremolo picking
T - tapping
S - slap
P - pop
< - fade in
^ - brush up
v - brush down





Comments


Popular Queen tabs & chords
Fat Bottomed Girls Bass Tabs
I Cant Live With You Bass Tabs
Another One Bites The Dust 2 Chords
The Miracle Chords
Under Pressure Chords
Hammer To Fall Tabs
Innuendo 1 Tabs
Tear It Up Tabs
We Will Rock You 1 Tabs
Hammer To Fall Ukulele


Song lyrics



↑ Back to top | Tablatures and chords are parodies/interpretations of the original songs. You may use it for private study, scholarship, research or language learning purposes only
© 2014 AZChords.com Contact us | Privacy policy | DMCA | Add/correct tabs | Request tabs | Top 50 tabs