>
 >
Innuendo

Innuendo Bass Tabs

Queen - Innuendo chords, tabs, tablatures, lyrics

Guitar lessons | Add/correct | Request | Top 50 tabs Artists:  A B C D E F G H I J K L M N O P Q R S T U V W X Y Z 0-9

Innuendo Bass Tabs – Queen

CD, Sheet music, Poster

Do you like Innuendo? Share with your friends now
Bass TabsChordsChords v2TabsTabs v2Ukulele
INNUENDO BY QUEEN
TUNEING IS G,D,A,E
RATE IT


|-----------------------------------------------------|
|-----------------------------------------------------|
|-----------------------------------------------------|
|0~~---------------0~~--------------4~~---------------|

 1st & 2nd Verse
|--------------------------------------------------------------------------|
|-----------------6/-------------------------------------------------------|
|------------------------------------------7/-----7---7-------7----------7-|
|4~~----------------0--0--0--0-0-0--0--0--0----0--0---0---0-07-------------|

|-------------------------------------------------------------------------|
|-------------------------------------------------------------------------|
|----------------------------------------------7/-------------------------|
|0-0-0-0-00-0-0-0-00-0-0-0-00-0-0-0-4--4--4--44--4--4-4-45-44-4--4-4-55-5-|

|------------------------------------------------------------------------|
|------------------------------------------------------------------------|
|-------------4-4-4-4-----------4-4-4-4--4-46-7----4-4-4--4--4-----------|
|4-4--4-4-4-4--------46-7--6--2----------------24-2-----------46-7--6--2-|


	       _______________________________________
|-------------------------------------------------------------|
|--------------4-6-6-6-6-6-6-6----6-6-6-66-6-66-6666-7~~~~~~~-|
|-------------6----------------7/-----------------------------|
|4--4-4--4--4-------------------------------------------------|

The next section is the Acoustic guitar solo
The the electric guitar solo
There is no Bass in this section

  The next bass section is the
  3rd Verse
|---------------------------------------------------------------------------|
|---------------------------------------------------------------------------|
|------------------7/-------7--7--7----------7/----------------------7------|
|0-00--0--00--0--00---0-07-----------0-00--0----00-0-0--0--0--0-00--0--0--0-|

|---------------------------------------------------------------------------|
|---------------------------------------------------------------------------|
|----------------------------4--4--4-4-------44---4--4--4-4-6-7-------------|
|4--4-4-4|4-4-4-4-45-44-4-4-4-55-54-4-4-4-4-4--467--6--2---------------24-2-|

|-------------------------------------------------------------------------|
|---------------------------------------------------------------6-6-6-6-6-|
|4-4-4-4-----------4--4-46-7-----2-4--4--4-4------------------------------|
|-------46-7--6--2-----------24-2-----------46-7--6--2-4-4-4-4-4----------|

|--------------------------------------|
|----------------6-6--6--6--6-77~~-----|
|--------------6-----------------------|
|4-4-4-4-4-4-4-------------------------|





Comments


Popular Queen tabs & chords
Don't Stop Me Now Bass Tabs
Lily Of The Valley Bass Tabs
Another One Bites The Dust 2 Chords
Innuendo 1 Chords
Back Chat Tabs
Doing All Right 1 Tabs
A Human Body Ukulele
Bijou Ukulele
Crazy Little Thing Called Love Ukulele
Las Palabras De Amor Ukulele


Song lyrics



↑ Back to top | Tablatures and chords are parodies/interpretations of the original songs. You may use it for private study, scholarship, research or language learning purposes only
© 2014 AZChords.com Contact us | Privacy policy | DMCA | Add/correct tabs | Request tabs | Top 50 tabs