» » »

Queen, Hello Mary Lou Tabs (ver.1)

Artists:  A B C D E F G H I J K L M N O P Q R S T U V W X Y Z # 

Hello Mary Lou Tabs (ver.1)

Queen Tabs
Rating:
0/5 (0 votes)
Hard to play? Try these video lessons and learn fast.
                hello mary lou


queen








e:-2-2-2-2h3-3-3-|
B:-3-3-3-3-3-3-3-|
G:-2-2-2-2-2-2-2-| x3
D:-0-0-0-0-0-0-0-|
A:---------------|
E:---------------|

e:-2---------|
B:-3---------|
G:-2---------|
D:-0---------|
A:----0-2-4--|
E:-----------|

verse
e:-2-2-2-2-2-2-2-2-0-0-2--3-3-3-3-3-3-3--2-2-2-2-2-2-2-2-2-2-2----------------------------|
B:-3-3-3-3-3-3-3-3-3-3-3--3-3-3-3-3-3-3--3-3-3-3-3-3-3-3-3-3-3--2-0-2-0-0-2-2-0-2-0-0-2-2-|
G:-2-2-2-2-2-2-2-2-2-2-2--0-0-0-0-0-0-0--2-2-2-2-2-2-2-2-2-2-2--2-2-2-2-2-2-2-2-2-2-2-2-2-|
D:-0-0-0-0-0-0-0-0-0-0-0--0-0-0-0-0-0-0--0-0-0-0-0-0-0-0-0-0-0--2-2-2-2-2-2-2-2-2-2-2-2-2-|
A:------------------------2-2-2-2-2-2-2-------------------------0-0-0-0-0-0-0-0-0-0-0-0-0-|
E:------------------------3-3-3-3-3-3-3---------------------------------------------------|


:-2-2-2-2-2-2-2-2-2-2-2-2--2-2-2-2-2-2-2--2-2-2-2-2-2-2--0-0-0-0-0-0-------------2-2-2-2-|
:-3-3-3-3-3-3-3-3-3-3-3-3--2-2-2-2-2-2-2--3-3-3-3-3-3-3--0-0-0-0-0-0--2-2-2-2-2--3-3-3-3-|
:-2-2-2-2-2-2-2-2-2-2-2-2--3-3-3-3-3-3-3--4-4-4-4-4-4-4--1-1-1-1-1-1--2-2-2-2-2--2-2-2-2-|
:-0-0-0-0-0-0-0-0-0-0-0-0--4-4-4-4-4-4-4--4-4-4-4-4-4-4--2-2-2-2-2-2--2-2-2-2-2--0-0-0-0-|
:--------------------------4-4-4-4-4-4-4--2-2-2-2-2-2-2--2-2-2-2-2-2--0-0-0-0-0----------|
:--------------------------2-2-2-2-2-2-2-----------------0-0-0-0-0-0---------------------|


e:-3-3-3-2-2--------|
B:-3-3-3-3-3--------|
G:-2-2-2-2-2--------|
D:-0-0-0-0-0--------|
A:------------0-2-4-|
E:------------------|

verse
e:-2-2-2-2-2-2-2-2-0-0-2--3-3-3-3-3-3-3--2-2-2-2-2-2-2-2-2-2-2----------------------------|
B:-3-3-3-3-3-3-3-3-3-3-3--3-3-3-3-3-3-3--3-3-3-3-3-3-3-3-3-3-3--2-0-2-0-0-2-2-0-2-0-0-2-2-|
G:-2-2-2-2-2-2-2-2-2-2-2--0-0-0-0-0-0-0--2-2-2-2-2-2-2-2-2-2-2--2-2-2-2-2-2-2-2-2-2-2-2-2-|
D:-0-0-0-0-0-0-0-0-0-0-0--0-0-0-0-0-0-0--0-0-0-0-0-0-0-0-0-0-0--2-2-2-2-2-2-2-2-2-2-2-2-2-|
A:------------------------2-2-2-2-2-2-2-------------------------0-0-0-0-0-0-0-0-0-0-0-0-0-|
E:------------------------3-3-3-3-3-3-3---------------------------------------------------|

:-2-2-2-2-2-2-2-2-2-2-2-2--2-2-2-2-2-2-2--2-2-2-2-2-2-2--0-0-0-0-0-0-------------2-2-2-2-|
:-3-3-3-3-3-3-3-3-3-3-3-3--2-2-2-2-2-2-2--3-3-3-3-3-3-3--0-0-0-0-0-0--2-2-2-2-2--3-3-3-3-|
:-2-2-2-2-2-2-2-2-2-2-2-2--3-3-3-3-3-3-3--4-4-4-4-4-4-4--1-1-1-1-1-1--2-2-2-2-2--2-2-2-2-|
:-0-0-0-0-0-0-0-0-0-0-0-0--4-4-4-4-4-4-4--4-4-4-4-4-4-4--2-2-2-2-2-2--2-2-2-2-2--0-0-0-0-|
:--------------------------4-4-4-4-4-4-4--2-2-2-2-2-2-2--2-2-2-2-2-2--0-0-0-0-0----------|
:--------------------------2-2-2-2-2-2-2-----------------0-0-0-0-0-0---------------------|


e:-3-3-3-2-2--------|
B:-3-3-3-3-3--------|
G:-2-2-2-2-2--------|
D:-0-0-0-0-0--------|
A:------------0-2-4-|
E:------------------|

verse
e:-2-2-2-2-2-2-2-2-0-0-2--3-3-3-3-3-3-3--2-2-2-2-2-2-2-2-2-2-2----------------------------|
B:-3-3-3-3-3-3-3-3-3-3-3--3-3-3-3-3-3-3--3-3-3-3-3-3-3-3-3-3-3--2-0-2-0-0-2-2-0-2-0-0-2-2-|
G:-2-2-2-2-2-2-2-2-2-2-2--0-0-0-0-0-0-0--2-2-2-2-2-2-2-2-2-2-2--2-2-2-2-2-2-2-2-2-2-2-2-2-|
D:-0-0-0-0-0-0-0-0-0-0-0--0-0-0-0-0-0-0--0-0-0-0-0-0-0-0-0-0-0--2-2-2-2-2-2-2-2-2-2-2-2-2-|
A:------------------------2-2-2-2-2-2-2-------------------------0-0-0-0-0-0-0-0-0-0-0-0-0-|
E:------------------------3-3-3-3-3-3-3---------------------------------------------------|

:-2-2-2-2-2-2-2-2-2-2-2-2--2-2-2-2-2-2-2--2-2-2-2-2-2-2--0-0-0-0-0-0-------------2-2-2-2-|
:-3-3-3-3-3-3-3-3-3-3-3-3--2-2-2-2-2-2-2--3-3-3-3-3-3-3--0-0-0-0-0-0--2-2-2-2-2--3-3-3-3-|
:-2-2-2-2-2-2-2-2-2-2-2-2--3-3-3-3-3-3-3--4-4-4-4-4-4-4--1-1-1-1-1-1--2-2-2-2-2--2-2-2-2-|
:-0-0-0-0-0-0-0-0-0-0-0-0--4-4-4-4-4-4-4--4-4-4-4-4-4-4--2-2-2-2-2-2--2-2-2-2-2--0-0-0-0-|
:--------------------------4-4-4-4-4-4-4--2-2-2-2-2-2-2--2-2-2-2-2-2--0-0-0-0-0----------|
:--------------------------2-2-2-2-2-2-2-----------------0-0-0-0-0-0---------------------|

e:-3-3-3-2-2--|
B:-3-3-3-3-3--|
G:-2-2-2-2-2--|
D:-0-0-0-0-0--|
A:------------|
E:------------|

:---0-0-0-0-0-0-------------2-2-2-2-|
:---0-0-0-0-0-0--2-2-2-2-2--3-3-3-3-|
:---1-1-1-1-1-1--2-2-2-2-2--2-2-2-2-|
:---2-2-2-2-2-2--2-2-2-2-2--0-0-0-0-|
:---2-2-2-2-2-2--0-0-0-0-0----------|
:---0-0-0-0-0-0---------------------|

e:-3-3-3-2-2--|
B:-3-3-3-3-3--|
G:-2-2-2-2-2--|
D:-0-0-0-0-0--|
A:------------|
E:------------|

:---0-0-0-0-0-0-------------2-2-2-2-|
:---0-0-0-0-0-0--2-2-2-2-2--3-3-3-3-|
:---1-1-1-1-1-1--2-2-2-2-2--2-2-2-2-|
:---2-2-2-2-2-2--2-2-2-2-2--0-0-0-0-|
:---2-2-2-2-2-2--0-0-0-0-0----------|
:---0-0-0-0-0-0---------------------|

e:-3-3-3-2-2--|
B:-3-3-3-3-3--|
G:-2-2-2-2-2--|
D:-0-0-0-0-0--|
A:------------|
E:------------|


e:-----2-------------------|
B:-2---3-------------------|
G:-2---2-------------------|
D:-2---0-------------------|
A:-0-----------------------|
E:-------------------------|
            

comments powered by Disqus
↑ Back to top | Queen Tabs for Hello Mary Lou. Lyrics for acoustic guitar and electric guitar. Tablatures and chords are parodies/interpretations of the original songs. You may use it for private study, scholarship, research or language learning purposes only