>
 >
Heaven For Everyone

Heaven For Everyone Chords

Queen - Heaven For Everyone chords, tabs, tablatures, lyrics

Guitar lessons | Add/correct | Request | Top 50 tabs Artists:  A B C D E F G H I J K L M N O P Q R S T U V W X Y Z 0-9

Heaven For Everyone Chords – Queen

CD, Sheet music, Poster

Do you like Heaven For Everyone? Share with your friends now
ChordsTabsTabs v2Ukulele
Queen - This could be heaven for everyone

Intro:
C                 Bb  F
This could be heaven
Bb  C
    This could be heaven
Bb  F
    This could be heaven
Bb  C
    This could be heaven
(C)                Bb
This could be heaven
F
This could be heaven for everyone
Bb  C
    This could be heaven
(C)                Bb
This could be heaven
F
This could be heaven for everyone

Verse 1:

Bb       C          Bb  F
In these days, of cool reflection
Bb       C
You come to me     e--5--3----------|
                   B--------6--5----|
    Bb   F
And everything seems alright
Bb       C         Bb  F
In these days of cold affactions,
Bb         C       Bb  F
You sit by me - and everything's fine


C                        G/B
This could be heaven for everyone
     D                         A/C#
This world could be free, this world could be fun
C                        G
This could be heaven for everyone
     D                         A/C#
This world could be free, this world could be one

e---------8--10--12--13--8---------------|
B--10--8---------------------4--3--1-----|


Verse 2:

In this world of cool deception
Just your smile, can smooth my ride
These troubled days of cool rejection, hmm
You come to me, soothe my troubled mind


C                        G/B
This could be heaven for everyone
     D                         A/C#
This world could be fed, this world could be fun
C                        G
This should be love for everyone, yeah
     D                         A/C#
This world could be free, this world could be one
C                           G/B
We should bring love to our daughters and sons
Bb          F     C                        Dm  G  F
Love, love, love, this could be heaven for everyone


You konw that
Dm            C/E             F    G
This could be haeven for everyone
Dm            C/E             F    G
This could be haeven for everyone
Dm            C/E             D
This could be haeven for everyone


Solo:

e-----------------------------------------------------|
B-----------------------------------------------------|
G-------------------4--5--4---------------------------|
D--4--8--4/2--2--0-----------7--5--4----4--2--2--0----|
A-----------------------------------------------------|
E-----------------------------------------------------|

e--------------------------------------|
B--------------------------------------|
G------------2-------------------------|
D---0--2--4-----0--2--0--2--0--2--0----|
A--------------------------------------|
E--------------------------------------|

e-------10--12--14--14--12--10--12--9------10--14--15--17--17--15--14---|
B---10--------------------------------10--------------------------------|
G-----------------------------------------------------------------------|
D-----------------------------------------------------------------------|
A-----------------------------------------------------------------------|
E-----------------------------------------------------------------------|

e---15--14--12-------12--14--16--16---14--12--14--16--17----------------|
B--------------12-------------------------------------------------------|
G-----------------------------------------------------------------------|
D-----------------------------------------------------------------------|
A-----------------------------------------------------------------------|
E-----------------------------------------------------------------------|

e---16--14---12---14---16---12---14---16---14---16---18---14---16---18--|
B----------12---16---17---12---16---17---14---18---19---14---18---19----|
G-----------------------------------------------------------------------|
D-----------------------------------------------------------------------|
A-----------------------------------------------------------------------|
E-----------------------------------------------------------------------|

        D              A/C#
Listen, what people do to other souls
     E                 B
They take their lives, destroy their goals
    F#            C#/F
Their basic pride and dignity
   E                 B
Is stripped and torn shown on pity
     D                     E        F#
when this should be heaven for everyone


C#                   B
This could be heaven
F#                            B
  This could be heaven
C#
This could be heaven........


End:
C#
This could be heaven, for everyone
B  F#
      For everyone

I guess I've got to explain some of the chords:

A/C#     x42220
C/E      032010
C#       x46664
C#/F     143121
F#       244322
G/B      x20033





Comments


Popular Queen tabs & chords
I Want It All Bass Tabs
Call Me Chords
Mustapha Chords
You Take My Breath Away Chords
Bohemian Rhapsody 1 Tabs
Heaven For Everyone 1 Tabs
Seaside Rendezvous 1 Tabs
Son And Daughter Tabs
We Are The Champions 2 Tabs
Who Wants To Live Forever 2 Tabs


Song lyrics



↑ Back to top | Tablatures and chords are parodies/interpretations of the original songs. You may use it for private study, scholarship, research or language learning purposes only
© 2014 AZChords.com Contact us | Privacy policy | DMCA | Add/correct tabs | Request tabs | Top 50 tabs