» » »

Queen, Good Old Fashioned Lover Boy Ukulele Chords (ver.1)

Artists:  A B C D E F G H I J K L M N O P Q R S T U V W X Y Z # 

Good Old Fashioned Lover Boy Ukulele Chords (ver.1)

Queen Tabs
Rating:
0/5 (0 votes)
Good Old Fashioned Lover Boy lessons Tabs too difficult? Try these video lessons and learn fast
                ...GOOD OLD FASHIONED LOVER BOY... by Queen
----------------------------------.........

*from 'A Day At The Races' (1976)*


*CAPO 3rd FRET*

(Original Key: Eb)


Verse 1:

C                                  F             Em  Am
 I can dim the lights and sing you songs full of sad things,
Dm7            F     G7       C   G7
 We can do the tango just for two.
C                          F            Em    Am
 I can serenade and gently play on your heart strings;
Dm7            Fm   G7       C   G7
 Be your Valen-tino just for you.

Chorus 1:

C     G7/B  Am   Em F   C   G7/B              Am         E7/Ab
 Ooh, love, ooh, lo-ver boy, what're doing to-night, hey boy?

    Am   Em         Am    Em
Set my a-larm, turn on my charm,
          Dm7                  Fm        G7    C
That's be-cause I'm a good old fashioned lover boy.

Bridge 1:

Fm                     C/E              Edim C/E Edim C/E
 Ooh, let me feel your heartbeat, (grow fast-er, fast-er),

Fm   Eb7              Ab        Eb7
 Ooh, can you feel my love heat?
                      Ab          Eb7
Come on and sit on my hot seat of love and tell me;
Ab          G7               C
 How do you feel right after all?
                     F          Em  Am
I'd like for you and I to go ro-man-cing;
Dm7                 Fm      G7     C    G7
 Say the word, your wish is my com-mand.

Chorus 2:

C     G7/B  Am   Em F   C   G7/B              Am         E7/Ab
 Ooh, love, ooh, lo-ver boy, what're doing to-night, hey boy?

Am        Em      Am        Em
 Write my letter, feel much better,
    Dm7          Fm            G7   C
And use my fancy patter on the tele-phone.

Break:

C6
 When I'm not with you, think of you always,
              G7sus4          G7/D
(I miss those long hot summer nights), I miss you.
C6                      Gm7
 When I'm not with you; think of me always...
  D7        G7   A7
I love you, love you.

Dm7
 Hey boy, where did you get it from? Hey boy, where did you go?
  Dm                        Fm                 G7              C
I learned my passion in the good old fashioned school of lover boys.

Solo:

    C      G7/B                   Am                Em     F
e|--12-------------------------|--------------------------------|
B|------11b12--12p11-12p11-12--|--------16b17-16b17-------------|
G|-----------------------------|--9p8-9-------------8-7-8--6b8--|
D|-----------------------------|--------------------------------|
A|-----------------------------|--------------------------------|
E|-----------------------------|--------------------------------|

    C                             G7/B
e|--------------------------------------------12-13-15-15b17--|
B|--15b17-15b17r15p13-12-13-15-------12-13-15-----------------|
G|-----------------------------12-14--------------------------|
D|------------------------------------------------------------|
A|------------------------------------------------------------|
E|------------------------------------------------------------|

    Am                     E7/Ab
e|--17-15b17-17-15b17-17-x-x-------------------------|
B|-----------------------------9--12-10h12p10p9--10--|
G|---------------------------9-----------------------|
D|---------------------------------------------------|
A|---------------------------------------------------|
E|---------------------------------------------------|

    Am        Em     Am            Em
e|-----12-12---------11b12--11b12---------|
B|--10--------5p4-5----------------5p4-5--|
G|----------------------------------------|
D|----------------------------------------|
A|----------------------------------------|
E|----------------------------------------|

    Dm         Fm           Em           Fm7
e|-----------------------|---------------13h14-13---|
B|--3h5--6h10--15b17r15--|--8h10--12h13-------------|
G|-----------------------|--------------------------|
D|-----------------------|--------------------------|
A|-----------------------|--------------------------|
E|-----------------------|--------------------------|

    C        G/B      Am          Em        Dm7          F  G7
e|---------------------------------------|----------------------------------|
B|--15b17r15-13-15b18-15b17r15p13-15b18--|--3-3b6-6-6b10-10-10b13-13-13b17--|
G|---------------------------------------|----------------------------------|
D|---------------------------------------|----------------------------------|
A|---------------------------------------|----------------------------------|
E|---------------------------------------|----------------------------------|

Verse 2:

C                                  F        Em   Am
 Dining at the Ritz, we'll meet at nine pre-cise-ly,
(One two, three, four, five, six, seven eight, nine o'clock),
Dm7             F         G7        C    G7
 I will pay the bill, you taste the wine.
C                               F                   Em   Am
 Driving back in style in my sa-loon, will do quite nice-ly,
     Dm7             Fm7         G7      C
Just take me back to yours, that will be fine.
             G7
(Come on and get it)...

Chorus 3:

C     G7/B  Am   Em F   C   G7/B              Am         E7/Ab
 Ooh, love, ooh, lo-ver boy, what're doing to-night, hey boy?

      Am          Em          Am      Em
Every-thing's all right, just hold on tight,
          Dm7                  Fm           G7    C   G, C
That's be-cause I'm a good old fashioned... lover boy.


CHORD DIAGRAMS:
---------------

   C       F       Em      Am      Dm7     G7      Fm     G7/B

 EADGBE  EADGBE  EADGBE  EADGBE  EADGBE  EADGBE  EADGBE  EADGBE
 x32010  133211  022000  x02210  xx0221  353433  133111  x20001

  E7/Ab    C/E    Edim     Eb7     Ab      C6    G7sus4   G7/D

 EADGBE  EADGBE  EADGBE  EADGBE  EADGBE  EADGBE  EADGBE  EADGBE
 xxx130  xx2010  xx2323  x68686  466544  x32200  353333  xx0001

   Gm7     D7      A7      Dm      Fm7     G/B

 EADGBE  EADGBE  EADGBE  EADGBE  EADGBE  EADGBE
 353333  xx0212  x02223  xx0231  131111  x20033
            

comments powered by Disqus
↑ Back to top | Queen Ukulele for Good Old Fashioned Lover Boy. Lyrics for acoustic guitar and electric guitar. Tablatures and chords are parodies/interpretations of the original songs. You may use it for private study, scholarship, research or language learning purposes only