>
 >
Fun It 1

Fun It 1 Guitar Tabs

Queen - Fun It 1 chords, tabs, tablatures, lyrics

Guitar lessons | Add/correct | Request | Top 50 tabs Artists:  A B C D E F G H I J K L M N O P Q R S T U V W X Y Z 0-9

Fun It 1 Guitar Tabs – Queen

CD, Sheet music, Poster

Do you like Fun It 1? Share with your friends now
TabsTabs v2
sketch 
|--------------------------------------------------------|
|--------------------------------------------------------|
|--------------------------------------------------------|
|--------------------------------------------------------|
|--------------------------------------------------------|
|-x-12---10---12-0-0-10---9---x---x---x-7-0-0-5---6---0--|

39"
|--------------------------------------------------------------------------|
|--------------------------------------------------------------------------|
|--------------------------------------------------------------------------|
|--------------------7--5--5------9\------5--5--------------5--5--7---9\---|
|---------------x-x--0--2--3--5---7\---0--2--3---x--x-x--0--2--3--5---7\---|
|-0-5---7--8---------------------------------------------------------------|

|-------------------------------------------------------------|
|-------------------------------------------------------------|
|-------------------------------------------------------------|
|----5--5----5--5--5--7---7\-------2--2---------5--5--7--9\---|
|-0--2--3----0--2--3--5---9\----0--2--3----x-0--2--3--5--7\---|
|-------------------------------------------------------------|

|----------------------------------------------------------|
|----------------------------------------------------------|
|----------------------------------------------------------|
|----------------------------------------------------------|
|----------------------------------------------------------|
|-5--3--5--3-3-5-3-3-5--3-3-3-5--3--5--3-3-5-3-3-5--3-3-5/-|

|-----------------------------------------------------------------------------|
|-----------------------------------------------------------------------------|
|-----------------------------------------------------------------------------|
|-----------------------------------------------------------------------------|
|-----------------------------------------------------------------------------|
|-12--10--12--10-10-12-10-10-12--10-10-10-12--10--12--10-10-12-10-10-12--10-10\

|---------------------------------------------------------|
|---------------------------------------------------------|
|---------------------------------------------------------|
|---------------------------------------------------------|
|------------------------------------------5--------------|
|-5--3--5--3-3-5-3-3-5--3-3-3-5--3--5--3-3-5-3-3-5--3-3-3-|

|----------------------------------------------------------|
|----------------------------------------------------------|
|------------------------/12--12--12--11/12--12--12--12\---|
|-9--9--9--9--9--9--9--9-/12--12--12--11/12--12--12--12\---|
|-9--9--9--9--9--9--9--9-/10--10--10---9/10--10--10--10\---|
|-7--7--7--7--7--7--7--7-----------------------------------|

12"         
|---------||-7/9\7--||-14--14-12--||-----|
|-8--8-8--||-x------||-12--12-12--||-7---|
|-7--7-7--||-7/9\7--||-12--12-12--||-9---|
|-6--6-6--||--------||------------||-11--|
|---------||--------||------------||-----|
|---------||--------||------------||-----|

solos
47"      55"                                               1'8" 
|-------|-----------------|------------------------------|--------------|
|-15b17-|-----------------|------------------------------|---5b---------|
|-------|-----------------|------------------------------|---5b---------|
|-------|-------12h14-----|-----------12b----------------|-*------7p5---|
|-------|-12h14-----------|-12--13-14-------12--10b------|------------7-|
|-------|-------------12--|---------------------------12-|--------------|
                 1'22"
|---------------|-----------------------|
|---------------|-----------------------|
|---------------|-----------------------|
|---5b----------|---------12---14-------|
|-7------7-5-7--|-12h14-----------------|
|---------------|-------------------12--|

  1'29"                           1'44"   2'7"
|-14--14-12-|-------------------|-7/9\7-|--------------------------------|
|-12--12-12-|-------------------|-------|--------------------------------|
|-12--12-12-|-------------------|-7/9\7-|--------------------------------|
|-----------|---------12---14---|-------|--------------------------------|
|-----------|-12h14-------------|-------|-10b-----*-14\12-*-10b----------|
|-----------|-------------------|-------|------------------------12--12v-|

|-------------------------------------------------|----------|
|-------------------------------------------------|---5b-----|
|-------------------------------------------------|---5b-----|
|-------------------------------------------------|-*-----7--|
|------------------------10v----*-12p10----10-----|----------|
|-12-10---10-10-10-12-12----------------12----12\-|----------|

2'27"                                               2'34"  2'46"
|--------------------------------------------------|------|----------|
|--------------------------------------------------|-*--5-|---11-12--|
|--------------------------------------------------|----7-|---11-12--|
|-------12-------12-------12---------14p12---------|----6-|-x-11-12--|
|-12h14----12h14----12h14----12h14--------14p12-10-|------|----------|
|--------------------------------------------------|------|----------|

|-------------------------------------------------------|
|-------------------------------------------------12b---|
|-------------------------------------------------12b---|
|--------------12---14------------------12---14---------|
|-x---12-13-14-----------------12-13-14-----------------|
|-----------------------12\-----------------------------|

|-----------------------------|-------------------------------------|
|-----------------------------|-----------------------------15b17v--|
|-----------------------------|-----------------12b-----------------|
|--------------12---14--------|---------12h14--------14-------------|
|-x---12-13-14-----------12\--|-12h14-------------------------------|
|-----------------------------|-------------------------------------|

|---------------------------------------------|
|---------------------------------------------|
|---------------------------------------------|
|----------12b--*-----------------------------|
|-12-13-14--------10b----------------10-------|
|-----------------------12---10-12--------12--|

|-----------------------------------------------|----------------|----|
|-----------------------------------------------|----------------|----|
|-----------------------------------------------|----------------|-0/-|
|-----------------------------------------------|---14---12------|-/0-|
|-----------10------------------10v------x---x--|-x-12---10---14-|----|
|-10---12--------12---10---12-------------------|-------------12-| 2x |

|----------------------------------------------------------|
|----------------------------------------------------------|
|----------------------------------------------------------|
|----------------------------------------------------------|
|-13p12p10-12p10---------------10v---------------10v-------|
|----------------12p10-10-12--------12---10-12--------12---|

|-------------------------------------------|--------------|----|--------|
|-----------------------------------12-12b--|----------12b-|----|---14b--|
|-------------------------------x-x-12-12b--|----------12b-|-0/-|---14b--|
|--------------------12-x-14v---------------|x---x-x-x-----|-/0-|-x------|
|---------10v--12h13------------------------|--------------|----|--------|
|-10-12-------------------------------------|--------------| 2x |--------|

|------------------------------------|------|
|-12b--------------------------------|----5-|
|-12b--------------------------------|-*--7-|
|------14p12-14-------------12---14--|----6-|
|-----------------12br-14------------|------|
|------------------------------------|------|


lyrics:
"Fun It" (Taylor)
 
Everybody in the morning
Should do a good turn all right
Everybody in the night time
Should have a good time all night
Now we got a movement
Don't shun it fun it
Can't you see now you're moving free?
Get some fun join our dynasty
Can't you tell when we get it down?
You're the one you're the best in town

Hey everybody everybody gonna have a good time tonight
Just shaking the soles of your feet
Everybody everybody gonna have a good time tonight
That's the only soul you'll ever meet

They say that moving the body's right it's all right
That's the only one part of being alive all right all right

Groove on out groove on up OK
Do your thing do your thing your way
Get you kicks get your tricks with me
Get up and dance honey fun's for free

Hey everybody everybody gonna have a good time tonight
Just shaking the soles of your feet
Everybody everybody gonna have a good time tonight
That's the only sole you'll ever meet

Don't shun it fun it
Don't shun it fun it
Don't shun it fun it





Comments


Popular Queen tabs & chords
Another One Bites The Dust 2 Bass Tabs
Fat Bottomed Girls Bass Tabs
Misfire Bass Tabs
You Dont Fool Me Chords
All Dead, All Dead Tabs
Bohemain Rhapsody Tabs
Good Old Fashioned Lover Boy (Solo) Tabs
Who Wants To Live Forever Tabs
I Was Born To Love You Ukulele
Long Away Ukulele


Song lyrics



↑ Back to top | Tablatures and chords are parodies/interpretations of the original songs. You may use it for private study, scholarship, research or language learning purposes only
© 2014 AZChords.com Contact us | Privacy policy | DMCA | Add/correct tabs | Request tabs | Top 50 tabs