>
 >
Father To Son

Father To Son Bass Tabs

Queen - Father To Son chords, tabs, tablatures, lyrics

Guitar lessons | Add/correct | Request | Top 50 tabs Artists:  A B C D E F G H I J K L M N O P Q R S T U V W X Y Z 0-9

Father To Son Bass Tabs – Queen

CD, Sheet music, Poster

Do you like Father To Son? Share with your friends now
Bass TabsChordsUkulele
Words and music by Brian May
Bass TAB
                  *       *       *       *       *       *
|-------|-------|---------8---------------------------------------|
|-------|-------|------------8--5---------------------------------|
|-10----|-8-----|-6---------------555555555555555-3-------5-------|
|-------|-------|-------------------------------------------------|
  *       *       *       *       *       *       *       *
|-----------------------------------------------------------------|
|-5---5-----------2-------2---2-----------------------------------|
|----5----5--55-----2----2---2---23---3---3-------5---5---5---3-3-|
|---------------------0------------------3----3----------5--------|

  *       *       *       *       *       *       *       *
|-----------------------------------------------------------------|
|-----5-----------2---------------------------5-------------------|
|---5---5-2---2--2--2------------------------5-52-3---3---3-------|
|-3----------2--------0-0-0-0-0---3---3---3------3---3---3----3---|

  *       *       *
|------------------------|-------|--------|
|-7-------7---7----------|-------|--------|
|----7---7---7--7-5------|-3-----|-5------|
|-----5------------------|-------|--------|

  *       *       *       *       *       *       *       *
|---------------------------------------------------------7-------|
|-5---------4---4-2-----------------------------------------------|
|---------5---5-------------------33--3---3-------5---------------|
|-------------------0-0---00000----------3----3-------------------|

  *       *       *       *       *       *       *       *
|-----------------------------------------------------------------|
|-5---5---4---4---2---------------------------3-------------------|
|---5---5---5---5---2------------------------5-52-32-23---3--3----|
|---------------------0-0-0-0-0-0-3---3--33------3--3----3----3333|
  *       *       *        *
|---------------------14---7/--14---|
|-----7-------7-77------------------|
|-5------7---7-7--5-----------------|
|---------5-------------------------|

                  *       *       *       *
|-------|-------|---------8---------------------------------|
|-------|-------|------------8--5---------------------------|
|-10----|-8-----|-6---------------555555555555555-8---------|
|-------|-------|-------------------------------------------|

                 *        *       *       *                 *        *
|---8h10-8h10-10-------------------------------15h17-h17-17---------------|
|----------------------------3-1----------------------------15------------|
|----------------8---------------1----------------------------------------|
|---------------------------------1---------/-----------------------------|

  *       *       *       *       *       *       *       *       *
|-------------------------------------------------------------------------|
|----3-1------------------------------------------------------------------|
|--------1--------------------------------------------7-77----750-----7-7-|
|---------1--11111444444444444444444444444...//---0-0-----0-0-----0-0-----|

  *       *       *       *       *       *       *       *       *
|-------------------------------------------------------------------------|
|-------------------------------------------------------------------------|
|--5---4------7-7-----7-7-----7-7--5---4------7-77----7-7-7-7----57-------|
|---------0-0-----0-0-----0-0-------------0-0-----0-0---------567--65305--|

  *       *       *       *       *       *       *
|---------------------------------------------------------|
|---------------------------------------------------------|
|-----7-7-----7-7-----7-7--5----------7-777-7777775...----|
|-0-0-----0-0-----0-0-----0---05--0-0---------------------|

  *       *       *       *       *       *       *       *
|-----------------------------------------------------------------|
|-----------------------------------------------------------------|
|----77------77-------7----5----------7-5-----7------77----5------|
|-000----00-------0------------5--0------70-------0------------5--|

  *       *       *       *       *       *       *       *
|-----97----------------------------------------------------------|
|-------9---------------------------------------------------------|
|-7-77---5777775------777755554444----75-57---75-5----777--5---4--|
|---------------750000------------0-0---7---0---7-0-0-------------|

  *       *          *          *       *       *       *       *       *
|----------------------------------------------------------------------------|
|----------------------------------------------------------------------------|
|-----7-77---910-10107-7910-1010-5-------------------------------5-----------|
|-0-00----0-0------------------------5--0--23---0--23---0--23--------5--0----|

|------|------|
|------|------|
|-5----|-3----|
|------|------|

  *       *       *       *       *       *       *       *       *
|-----------------------------------------------789999999997--------------|
|----------------7-------------------------45789------------9875----------|
|-----7-7777777-7-777775---5------777775-57---------------------75777775-5|
|-0-00------------------70-----5/-------7-------------------------------7-|

  *       *       *       *       *       *       *       *
|----------------------------------------------------------------|-----|-----|
|----------------------------------------------------------------|-----|-----|
|-75----------7-77-5--4-45----75-5----75-5---------5-------------|-5---|-3---|
|----7-53-0-0----------5--0-0---7-0-00--7-0-023--------5--0------|-----|-----|

  *       *       *       *       *       *       *       *
|-----------------------------------------------------------------|
|-----------------------------------------------------------------|
|---------5-5-5-5-7-------777-5-5-3---3---3-------5-------5---3---|
|-3-3-3-3-----------7-0-07-----------3---3----3-------------------|

  *       *       *       *       *   *   *       *       *       *
|-------------------------------------------------------------7-------9---|
|-----5--------4-02---2-------------------------------5------7-7-----9--9-|
|----5-5-02--22-2--------2----------------3-------3-------5-----5-7-------|
|-3-----3-----------------0-0000003---------------------------------------|

  *       *       *       *       *
|------------------------------------|
|---------7---7\---------------------|
|-----7-----------3------------32----|
|-5------------------------------35\-|

  *       *       *       *          *       *       *       *
|--------------------------------------------------------------------|
|-----5-------5----------------------------7-7-77777-55555-555553----|
|-----------------3---*---3---3_____--------7-------5------------531-|
|-3-------3--------------3-----3-3-3-5---5--------------------------3|

  *       *       *       *       *       *       *       *
|--------------------------------------------------------53-------|
|--------55-55553-------------5-557-77---77-7777735-5553---53-----|
|----------------53-333-333-33--------7-7---------------5----531--|
|-3-3----------------------------------5------------------------01|

  *       *       *       *       *       *       *       *
|---------------------------------------------------------3-------|
|---------5---53--------------5555777775----------55555555-5533---|
|--------5---5---53-3-3---3--3----------75---------------------531|
|-3--33------------------3----------------5-5-5-------------------|

  *       *         *       *         *       *       *       *
|-------------------------------_____-----------------------------|
|-------------------------------5-5-5---------7--7775-555555555...|
|-------------_____-3---3-3-3-3--------------7--------------------|
|-3---3--13---3-3-3-------------------5--55-----------------------|

  *       *       *       *         *       *       *       *
|-----------------------------_____----------5----------3-----------|
|-----5-------53------------555-5-5-7------77--775--5--5-5--3-------|
|----5---5-------53-333-333------------7----------75----------5-31--|
|-3-------3-----------------------------5-------------------------12|

  *       *       *       *         *       *       *       *
|----------33-----------------_____---------------------------------|
|---5-5-555--553--------------5-5-5-7-7-75------75--5-5---5553-5353-|
|---------------553-3-3-3-3-3--------------7-------7----------5----5|
|-3----------------------3------------------5-----------------------|

  *       *
|---------------|
|---------------|
|---------------|
|-3-3-3--03...--|





Comments


Popular Queen tabs & chords
Calling All Girls Bass Tabs
One Vision Bass Tabs
Earth 1 Chords
We Are The Champions 1 Drum Tabs
Doing All Right Tabs
Let Me Live Tabs
Now Im Here Intro 2 Tabs
Who Wants To Live Forever 4 Tabs
You're My Best Friend 1 Tabs
Small Ukulele


Song lyrics



↑ Back to top | Tablatures and chords are parodies/interpretations of the original songs. You may use it for private study, scholarship, research or language learning purposes only
© 2014 AZChords.com Contact us | Privacy policy | DMCA | Add/correct tabs | Request tabs | Top 50 tabs