» » »

Queen, Fairy Fellers Master Stroke Bass tabs (ver.1)

Artists:  A B C D E F G H I J K L M N O P Q R S T U V W X Y Z # 

Fairy Fellers Master Stroke Bass tabs (ver.1)

Queen Tabs
Rating:
0/5 (0 votes)
Fairy Fellers Master Stroke lessons Tabs too difficult? Try these video lessons and learn fast
                The Fairy Feller's Master-Stroke
Words and music by Freddie Mercury

0:09
|--------|--------|--------|--------|-4------|-----|--------|
|------54|------54|------54|--54--54|---4--54|--54-|--------|
|5-------|5-------|3---2---|55--55--|5---55--|55--5|3---2---|
|--------|--------|--------|--------|--------|-----|--------|

|-2------|--------|--------|--------|--------|-4-2----|
|---3-2--|---0/---|---0/---|---0/---|---0/---|-----4-1|
|0------3|---/0---|---/0---|---/0---|---/0---|2-------|
|--------|--------|--------|--------|--------|--------|

|---5-4--|----h42-|--------|--------|---2---2|--------|
|212----5|-------4|--------|--------|222-222-|---0/---|
|--------|5-------|3-------|-000222-|--------|---/0---|
|--------|--------|--------|--------|--------|--------|

|--------|--------|--------|--------|--------|--------|
|--------|--------|--------|---7-5--|--------|--------|
|3--32--2|0--00-02|3--32--2|0-*----7|5----1-3|0---5357|
|--------|-----3--|--3-----|--------|--------|--------|

|--------h10--10--|10------|--------|--------|-5------|--------|--------|
|--------|--------|--------|--------|7---7---|---7-5--|--------|-3335555|
|8---8---|--------|---87---|5----55-|---7---7|0---0--7|5-------|--------|
|---8----|--------|--------|--------|--------|--------|--------|--------|

|--------|-------4|5---4---|--------|--------|--------|
|--------|----757-|--------|7--7-5--|--------|-------2|
|3--32--2|0--0----|--------|-------7|5-----8\|0--0535-|
|--------|--------|--------|--------|--------|--------|

|--------|--------|--------|--------|--------|--------|--------|--------|
|3--32--2|3--3----|3---2---|--------|--------|7------7|--------|-333555-|
|--3---3-|--3-1-11|--3---3-|5-------|-------7|--------|5-------|--------|
|--------|--------|--------|--------|5-------|--------|--------|--------|

|--------|-2------|--------|--------|-3------|--------|--------|------13|
|---3-2--|---3-2--|---0/---|---0/---|---4-3--|---0/---|---0/---|---134--|
|00-----3|0------3|---/0---|---/0---|1------4|---/0---|---/0---|134-----|
|--------|--------|--------|--------|--------|--------|--------|--------|

|-7------|--------|-7------|--------|-7------|--------|-7------|----0245|
|7--9-7--|-7------|---9-7--|-7------|---9-7--|-7------|---9-7--|-234----|
|-------9|---9-7-4|5------9|---9-7-4|5------9|---9-7-4|5------x|3-------|
|--------|5-------|--------|5-------|--------|5-------|--------|--------|

|4--4--4-|--------|
|--------|------12|
|-22-22-2|21234---|
|--------|--------|

|-2------|--------|-4-2----|--------|--------|----7---|--------|--------|
|---3-2--|---0/---|-----4-1|---0/---|--57----|---7----|--------|--------|
|0------3|---/0---|2-------|---/0---|77--7--7|559----5|3-------|-000222-|
|--------|--------|--------|--------|--------|--------|--------|--------|

|--------|--------|----|--------|--------|--------|----2---|--------|
|--------|2--2-024|5---|--------|--------|--------|--------|0------\|
|--------|-2--2---|----|3---2---|0--00-02|3--32--2|0-------|--------|
|0-------|--------|----|--------|-----3--|--------|--------|--------|

|--------|--------|--------|-----7910--------|--------|-5------|
|----0-02|3--32--2|3-3/8888|--7810--|-----12\|7---7---|7--7*5--|
|0----3--|--3---3-|--------|810-----|--------|---7---7|-------7|
|--------|--------|--------|--------|--------|--------|--------|

|--------|--------|
|--------|-333555-|
|5-------|--------|
|--------|--------|

|--------|--------|--------|--------|--------|--------|--------|
|---5----|--------|--------|----75--|--------|----0302|3-------|
|3---2---|0---0-02|3--32---|0------7|5-----5\|1-11----|--------|
|--------|-----3--|--------|--------|--------|--------|--------|

|--------|--------|
|-------2|3-------|
|----35--|--------|
|--------|--------|
            
Submit corrections

comments powered by Disqus
↑ Back to top | Queen Bass for Fairy Fellers Master Stroke. Lyrics for acoustic guitar and electric guitar. Tablatures and chords are parodies/interpretations of the original songs. You may use it for private study, scholarship, research or language learning purposes only