>
 >
Dont Stop Me Now

Dont Stop Me Now Guitar Tabs

Queen - Dont Stop Me Now chords, tabs, tablatures, lyrics

Guitar lessons | Add/correct | Request | Top 50 tabs Artists:  A B C D E F G H I J K L M N O P Q R S T U V W X Y Z 0-9

Dont Stop Me Now Guitar Tabs – Queen

CD, Sheet music, Poster

Do you like Dont Stop Me Now? Share with your friends now
Bass TabsBass Tabs v2Drum TabsTabsTabs v2Tabs v3Ukulele
Really cant stand these guys they really do my head in but sum guy seemed desperate for 
solo so...here u go i ges....
if u need the rest of the guitar or u want bass for this song then PM me.


Guitar Solo
|------------------------------------------|
|------------------------------------------|
|-12b14==(12)----(12)r-12b14==(12)r(12)-10-|
|------------------------------------------|
|------------------------------------------|
|------------------------------------------|

-----------------------------------------------------|
-----------------------------------------------------|
-12b14-(12)---12b14==(12)-(12)r--12b14==(12)r(12)-10-|
-----------------------------------------------------|
-----------------------------------------------------|


                                      PM    PM
|--------------------------|-----------------------------------|
|-----------------------11-|-(11)-10---------------------------|
|-12-10-9-10-(10)-----x----|---------10-12-10-10-----x-12b14---|
|-------------------x------|-----------------------x-----------|
|--------------------------|---------------------x-------------|
|--------------------------|-----------------------------------|


|-----------------------------------------------------------------|
|-----------------------------------------------------------------|
|-(12)-12b13-(12)-12b14-(12)-12b13-(12)-12b14==(12)r(12)-10-(10)--|
|-----------------------------------------------------------------|
|-----------------------------------------------------------------|
|-----------------------------------------------------------------|

|---------------------------------------------------|
|---x-11b13==(11)----(11)r-11b13==(11)r(11)-(11)-10-|
|-x-------------------------------------------------|
|---------------------------------------------------|
|---------------------------------------------------|
|---------------------------------------------------|


|----------------------------------------------------|
|-11b13-(11)---11b13==(11)-(11)r-11b13==(11)r(11)-10-|
|----------------------------------------------------|
|----------------------------------------------------|
|----------------------------------------------------|
|----------------------------------------------------|

|------------------------------------|
|-----11-10----10-(10)--(10)---------|
|---x-------12-------------------x---|
|-x----------------------------x-----|
|----------------------------x-------|
|------------------------------------|


|-----------------------------------|
|-11-10-----------------------------|
|-------x-12--10------x-12b14==(12)-|
|-------------------x---------------|
|-----------------x-----------------|
|-----------------------------------|


|----------------------------------------------------------|
|----------------------------------------------------------|
|-(12)r-12-12b14-(12)-12-12b14-(12)-12-12b14==(12)r(12)-10-|
|----------------------------------------------------------|
|----------------------------------------------------------|
|----------------------------------------------------------|

|-------------------------||
|-------------------------||
|-(10)----(10)------------||
|--------------10---------||
|-----------------12s10-8-||
|-------------------------||


Tablature Legend
----------------
 h   - hammer-on
 p   - pull-off
 b   - bend
 pb  - pre-bend
 r   - bend release (if no number after the r, then release immediately)
 /\  - slide into or out of (from/to "nowhere")
 s   - legato slide
 S   - shift slide
 - natural harmonic
[n]  - artificial harmonic
n(n) - tapped harmonic
 ~   - vibrato
 tr  - trill
 T   - tap
 TP  - trem. picking
 PM  - palm muting
\n/  - tremolo bar dip; n = amount to dip
 \n  - tremolo bar down
 n/  - tremolo bar up
/n\  - tremolo bar inverted dip
 =   - hold bend; also acts as connecting device for hammers/pulls
 <> - volume swell (louder/softer)
 x   - on rhythm slash represents muted slash
 o   - on rhythm slash represents single note slash

Misc Legend
-----------
 |  - bar
||  - double bar
||o - repeat start
o|| - repeat end
*|  - double bar (ending)
 :  - bar (freetime)
 $  - Segno
 &  - Coda
Tempo markers -  = BPM(8/16=s8/s16), where s8 = swing 8ths, s16 = swing 16ths





Comments


Popular Queen tabs & chords
Action This Day Bass Tabs
Dont Try So Hard Bass Tabs
Dont Try So Hard Chords
Im In Love With My Car Chords
Dragon Attack Tabs
It's A Hard Life Tabs
Killer Queen Tabs
The March Of The Black Queen 1 Tabs
Who Wants To Live Forever Tabs
Gimme The Prize Ukulele


Song lyrics



↑ Back to top | Tablatures and chords are parodies/interpretations of the original songs. You may use it for private study, scholarship, research or language learning purposes only
© 2014 AZChords.com Contact us | Privacy policy | DMCA | Add/correct tabs | Request tabs | Top 50 tabs