» » »

Queen, Don Try So Hard Bass tabs (ver.1)

Artists:  A B C D E F G H I J K L M N O P Q R S T U V W X Y Z # 

Don Try So Hard Bass tabs (ver.1)

Queen Tabs
 Rating:
4/5 (4 votes)
Don	 Try So Hard lessons Tabs too difficult? Try these video lessons and learn fast
                DON'T TRY SO HARD
QUEEN
WRITTEN BY QUEEN



Bass Enters at the start of the second verse with a slide

G|----------------|----------|------9---9--|---------|--------|------------|---------------|14--------14----|
D|----------------|----------|----9------9-|---------|--------|12----------|12--------12/14|------------14--|
A|----------------|----------|7-----------7|0------7-|0-----12|----------12|---------------|--------------12|
E|--------------7/|0----0----|-------------|---------|--------|------------|---------------|----------------|

	     Chorus
G|---------|------------|-------------|-------------|------------|--9--9----|7----6------|------------|
D|---------|------------|-------------|-------------|------------|----------|------------|------------|
A|---------|5----5-5----|5----5-5---53|2-----2-----2|0----0---3/-|7---------|---------4/-|15----14----|
E|0--------|----------5-|-------------|----2-----2--|------------|----------|------------|------------|

					      3rd Verse
G|------------|-------------|----------|-----|------------|9------------|---------------|----------------|
D|------------|-------------|----------|-----|----------9-|----9--------|-------7--12/14|------------14--|
A|13----12----|11--13-------|----------|-----|------7-----|-----7-------|-----7---------|12---14-15----12|
E|------------|--------11---|10--------|3----|0---7-------|------0-slide|/5-------------|----------------|

										  Vocal Bridge
G|-------14----12---14|------------------12|14-----------14/1614-|---------------|-----------|-----------|
D|12---12--12-----14--|12/------7------14--|-----14----14--------|---------------|-----------|-----------|
A|--------------------|--------------------|--------12-----------|---------------|7---7-7--77|7---7-7----|
E|--------------------|-----------10-------|---------------------|0-let-ring-to--|-----------|-----------|

G|-------------|-------------|------------|------------|5-----5-----|5------------|3--------|-------------|
D|7----7-777-7-|-------------|----------7-|------------|------------|-------------|---4--5--|-------------|
A|-------------|7------------|5---5-5----5|4---4-4---4-|---3-----3--|-------------|---------|6------------|
E|-------------|-------------|------------|------------|------------|-------------|---------|-------------|
  
  Guitar Solo
G|-------------|-------------|----------1214-14-|14---------11-|7----------|7-------7----|-------------|-------------|
D|-------------|-------------|--------14--------|-------7------|----7-----7|-------7-----|7------------|7------------|
A|7---------let|ring---------|------------------|-----7--------|------5----|--5----------|-------------|-------------|
E|-------------|-------------|5-----------------|--------------|-----------|-------------|-------------|-------------|

   Chorus
G|------------|----------|-----------|------------|----------|-----------|-------------|-------|--------|---------|
D|------------|----------|-----------|------7-----|----------|-----------|-------------|-------|--------|---------|
A|5---5-5---5-|5----5----|-----------|----7-----0/|7----5----|5----4---/-|15--\--14----|-------|--------|---------|
E|------------|----------|7---7-7----|5-----------|----------|-----------|-------------|-------|--------|---------|
            
Submit corrections

comments powered by Disqus
↑ Back to top | Queen Bass for Don Try So Hard. Lyrics for acoustic guitar and electric guitar. Tablatures and chords are parodies/interpretations of the original songs. You may use it for private study, scholarship, research or language learning purposes only