» » »

Death On Two Legs Bass tabs (ver.1)

Artists:  A B C D E F G H I J K L M N O P Q R S T U V W X Y Z # 

Death On Two Legs Bass tabs (ver.1)

Queen
Rating:
0/5 (0 votes)

Hard to play? Try these video lessons and learn fast.
                DEATH ON TWO LEGS
QUEEN
WRITTEN BY FREDDIE MERCURY


Moderately - 150 bpm

Bass enters with Guitar after piano intro

			play 5 times|6th time	      | 
G|-----------------|----------------|-----------------|
D|--------------5--|-------------5--|-----------------|
A|5----------------|4---------------|4-------------5--|
E|-----------------|----------------|-----------------|

G|-----------------|-----------------|-----------------|---------19/18/19/|----------------|-------------|
D|-----------------|-----------------|-----------------|------------------|------------9-8-|----7--------|
A|-----------------|-----------------|-----------------|------------------|----------9-----|--9----------|
E|-----------------|-----------------|-----------------|------------------|7---------------|-------------|
				Guitar Solo
G|--------------|-------------|------------|-------------|-------------|-------------|--------------|
D|6-----------4-|5----4-------|------------|-------------|-------------|-------------|------------44|
A|----------5---|---5---------|------------|-------------|-------------|-------------|--------------|
E|--------7-----|-------------|2--2-22-22--|2--2-22-22-0-|3--3-33-33-33|3--3--3-33-0-|2--2-22-2-2---|
	      1st verse
G|-----------|-----------------|--------------|------------------|-------------7---|--------------|
D|4----------|-----------------|----------7-9-|--------------7-9-|-----------9---9-|5-----5-------|
A|-----------|-----------------|--------9-----|------------9-----|-----------------|----5-------5-|
E|--2-2-22-2-|-----------------|7-------------|------------------|-----------------|--------------|

G|------------|-------------|----------------|----------------|--------------|---------------|
D|5-----5--5--|4------------|4-4-4-4-4-4-4-/-|----------------|--------------|5-4---5-4---5/-|
A|--55--------|----4--------|----------------|5-----------3-5-|5---------3-5-|----5-----5----|
E|------------|------2----2-|----------------|----------5-----|--------5-----|---------------|
					    Chorus
G|------------|--------------|-------5----|---------------|--------------|--------------|
D|------5-----|5------5----/-|-----5------|-----------9-8-|----7---------|6-----------4-|
A|----5-----5-|----55--------|3-----------|---------9-----|--9-----------|----------5---|
E|3-----------|--------------|------------|7--------------|--------------|--------7-----|
										      Bridge
G|------------19/18/19/|----------------|--------------|--------------|-------------|-----------------|
D|5----4---------------|------------9-8-|---7--------/-|--------------|-------------|-----------------|
A|---5-----------------|----------9-----|-9------------|------------5-|--5--5-5-5---|-----------------|
E|---------------------|7---------------|--------------|5--------3----|----5------5-|2--2-22-2-2-22-0-|

G|-----------------|-------------|--------------|---------------|--------------|--------------|
D|-----------------|-------------|--------------|---------------|--------------|--------------|
A|-----------------|2--2-22------|2-2-22-2-22-1-|0-0-0-00-----0-|0--0-00-----0-|5--5-55-----0-|
E|2-2-2--2-2-2-2-2-|-------2-0-2-|--------------|---------2-3---|--------2-3---|--------2-3---|

G|---------------|----------|---------|--------------|---------------|---------------|------444-4-3-|
D|---------------|----------|---------|--------------|---------------|-------------4-|--------------|
A|5-5-554-2-54-0-|2---------|---------|--------------|---------------|2--2--2-2222---|2--2----------|
E|---------------|----------|2--------|2--2-22-202-0-|2--2-22-2022-0-|---------------|--------------|
								   Interlude
G|2--2-----------|--------------|--------------|-----------------|-----------|-----------|------|--------|
D|-----2---------|--------------|--------------|-----------------|-----------|-----------|------|--------|
A|-------0-----0-|0--0-0------0-|5--5-55-----0-|-----------------|-----------|-----------|------|2-20-2--|
E|---------2-----|--------2-3---|--------2-3---|-----------------|2-20-2-----|2-20-2-----|------|--------|

G|--------|----------2---|--------------|----------2---|--------------|----------2---|--------------|
D|--------|0--0--0-4-----|-0-2----------|0--0--0-4-----|-0-2----------|0--0--0-4-----|-0-2------0---|
A|--------|------------4-|-----2--0-0-4-|------------4-|-----2--0-0-4-|------------4-|-----2--4---0-|
E|--------|--------------|--------------|--------------|--------------|--------------|--------------|
				2nd Verse
G|--------------|-------------|-----------|-----------|-------7---|--------1515|14-12-------------------|
D|--------------|-------------|-------7-9-|-------7-9-|-----9---9-|5-----------|------15-12-15-12-------|
A|-2-4----0-2---|-------------|-----9-----|-----9-----|-----------|------------|------------------15-13-|
E|-----3------0-|2-2-0-2------|7----------|-----------|-----------|-----3------|------------------------|

G|------------------------|--------------------------|------------|-----------|----------------|------------|
D|------------------------|--------------------------|------------|-----------|5-4---5-4---5-4-|------5-----|
A|------------------------|--------------------------|5-------3-5-|-------3-5-|----5-----5-----|----5-----5-|
E|14-14-14-14-14-14-14-14-|14-14-14-14-14-14-1414-14-|------5-----|-----5-----|----------------|3-----------|
					      Chorus
G|--------------|----03-5-|-----------------|-------------|---------|------------|--------19/18/19/|
D|5---3-5-5--3--|---------|-----------------|-----------8-|---7-----|6---------4-|5----4-----------|
A|--------------|3--------|-----------------|-------------|-9-------|--------5---|---5-------------|
E|--------------|---------|-----------------|7------------|---------|------7-----|-----------------|

G|------------|----------|-------------|------------------|--------------|----------------|----------------|
D|--------9-8-|---7------|-------------|------------------|--------------|----------------|----------------|
A|------9-----|-9--------|-------------|5--5--5-5-5-5-5---|--------------|----------------|2--2--2-2-2-2-0-|
E|7-----------|----------|5-----3----X-|----------------5-|2--2-22-2-2-0-|2-2--22-2-2-2-2-|----------------|

G|-------4-4-40-3-|2--2----------|--------------|--------------|
D|-----4----4-----|-----2--------|--------------|--------------|
A|2--2------------|-------0-0----|0-00--0-----0-|5--5-55-----0-|
E|----------------|------------00|-----3--2-3---|--------2-3---|
            
Hard to play? Try these video lessons and learn fast. | Correct




comments powered by Disqus
↑ Back to top | Tablatures and chords are parodies/interpretations of the original songs. You may use it for private study, scholarship, research or language learning purposes only