» » »

Crazy Thing Called Love Bass tabs (ver.1)

Artists:  A B C D E F G H I J K L M N O P Q R S T U V W X Y Z # 

Crazy Thing Called Love Bass tabs (ver.1)

Queen
Rating:
0/5 (0 votes)

Hard to play? Try these video lessons and learn fast.
                h-hammer on

wait for guitar intro

verse x2

G----------4----------4----0-4-77-9--5-5-4-4----
D---0-4-77---0-4-77---------------------------
A---------------------------------------------
E---------------------------------------------

G----------4--------4------0-4-77-9--5-5-4-4----
D---0-4-77---0-4-77---------------------------
A---------------------------------------------
E---------------------------------------------

G----------4------------------4------
D---0-4-77-------------0-4-77---0----
A-------------1-1-3-3----------------
E------------------------------------

chorus (there goes my baby)

G---------------------------------------
D--5-------55--------------5------------
A----7-5h7----7-5h7--3333----7-5h7------
E---------------------------------------


G------------------------------------
D--8-7-5------------3-3--------------
A--------8-6-5-3-1-------1-1---------
E----------------------------3-------

break down

G---------------------------------------
D-------------------------2-0-----------
A--5-4-3----------------------4-2-------
E---------5-4-3--0000000----------------

verse x1

guitar solo

G--3-------33-------------------------7-----
D----5-3h5----5-3h5--666-555-0--0h7h9---0---
A-------------------------------------------
E-------------------------------------------

G------------------------------------
D-8-7-5------------3-3---------------
A-------8-6-5-3-1------1-1-----------
E--------------------------3---------

break down 2

G---------------------------------------
D---------------------------------------
A--5-4-3-------------5-6-7--------------
E--------5-4-3--7777--------------------

interlude
dont play anything for 17 seconds untill drum roll
strait after 3 second drum roll play

G--7-0-------
D------4-2---
A------------
E------------

verse x1

outro 1  x3

G---------------------4------------
D--------------0-4-77--------------
A--1-1--3-3------------------------
E----------------------------------

outro 2

G-4-4--5-5--7-7-7-7-----------------
D-----------------------------------
A-----------------------------------
E-----------------------------------

G-4-4--5-5---------4----------------
D-----------0-4-77------------------
A-----------------------------------
E-----------------------------------

outro 1 x3 then fade
            
Hard to play? Try these video lessons and learn fast. | Correct




comments powered by Disqus
↑ Back to top | Tablatures and chords are parodies/interpretations of the original songs. You may use it for private study, scholarship, research or language learning purposes only