>
 >
Crazy Little Thing Called Love 5

Crazy Little Thing Called Love 5 Bass Tabs

Queen - Crazy Little Thing Called Love 5 chords, tabs, tablatures, lyrics

Guitar lessons | Add/correct | Request | Top 50 tabs Artists:  A B C D E F G H I J K L M N O P Q R S T U V W X Y Z 0-9

Crazy Little Thing Called Love 5 Bass Tabs – Queen

CD, Sheet music, Poster

Do you like Crazy Little Thing Called Love 5? Share with your friends now
Bass TabsBass Tabs v2Bass Tabs v3Bass Tabs v4Bass Tabs v5Bass Tabs v6Bass Tabs v7Bass Tabs v8ChordsChords v2Chords v3Drum TabsTabsTabs v2Tabs v3Ukulele
      
                            Queen  
                     
                Crazy lttle thing called love

Here is the Queen song Crazy lttle thing called love

Bass 
               
                                                         
G||--------------------------|--------------------------|
D||--------------------------|--------------------------|
A||--------------------------|--------------------------|
E||--------------------------|--------------------------|


                                                       
--------------------------|---------------------------|
--------------------------|----------------------4----|
--------------------------|---------------------------|
--------------------------|---------------------------|


                                                                 
----------------2----2--4------|----------------2----2--4----2--|
--0------4---------------------|--0------4----------------------|
-------------------------------|--------------------------------|
-------------------------------|--------------------------------|


                                                                   
--0------4------7----7--9------|----------------------------------|
-------------------------------|--10------10------9----9----------|
-------------------------------|--------------------------10------|
-------------------------------|----------------------------------|


                                                                  
-------------------------4------|----------------2----2--4----2--|
-----------------7----7---------|---------4----------------------|
----------9---------------------|--5-----------------------------|
--10----------------------------|--------------------------------|


                                                                 
--0------4------7----7--9----7--|--5------5------4----4--0------|
--------------------------------|-------------------------------|
--------------------------------|-------------------------------|
--------------------------------|-------------------------------|


                                                                
-----------------2----2--4------|------------------------------|
--0----0--4---------------------|------------------------------|
--------------------------------|--1------1------3------3------|
--------------------------------|------------------------------|


                                                               
----------------2------4--2--4--|--7----------------7--4------|
--0------4----------------------|-----------------------------|
--------------------------------|-----------------------------|
--------------------------------|-----------------------------|


                                                                 
----------------2----2--4------|----------------2----2--4----2--|
---------4---------------------|--0------4----------------------|
--5----------------------------|--------------------------------|
-------------------------------|--------------------------------|


                                                                  
--0------4------7----7--9----7--|--5------5------4----4--0----0--|
--------------------------------|--------------------------------|
--------------------------------|--------------------------------|
--------------------------------|--------------------------------|


                                                                  
-----------------2----2--4------|----------------2----2--4----2--|
--0----0--4---------------------|--0------4----------------------|
--------------------------------|--------------------------------|
--------------------------------|--------------------------------|


                                                                  
--0------4------7----7--9----7--|--5------5------4----4--0----0--|
--------------------------------|--------------------------------|
--------------------------------|--------------------------------|
--------------------------------|--------------------------------|


                                                                
-----------------2----2--4------|------------------------------|
--0----0--4---------------------|------------------------------|
--------------------------------|--1------1------3------3------|
--------------------------------|------------------------------|


                                                               
----------------2------4--2--4--|--7----------------7--4------|
--0------4----------------------|-----------------------------|
--------------------------------|-----------------------------|
--------------------------------|-----------------------------|


                                                                 
-------------------------------|--0-----------------------------|
--5------2------0----0--2------|---------2------0----0--2----0--|
-------------------------------|--------------------------------|
-------------------------------|--------------------------------|


                                                              
----------------------------0--|-----------------------------|
-------------------------------|--------2------0------2------|
--3------3------3------3-------|-----------------------------|
-------------------------------|-----------------------------|


                                                              
--3------2------0-------------|------------------------------|
-----------------------3------|--1------0--------------------|
------------------------------|----------------3------1------|
------------------------------|------------------------------|


                                                            
-------------------------------|---------------------------|
--2------2---------------------|---------------------------|
----------------0----0--0------|---------------------------|
-------------------------------|--1------------------------|


                                                            
-----------------------------|-----------------------------|
----0------------------------|-----------------------------|
---------4----3--------------|----0------------------------|
-----------------------------|---------4----3--------------|


                                                                  
--------------------------------|--2----2--0---------------------|
-------2----2----2----2----2----|-----------------4----4--2------|
--------------------------------|--------------------------------|
--0-----------------------------|--------------------------------|


                                                                 
----------------2----2--4------|----------------2----2--4----2--|
--0------4---------------------|--0------4----------------------|
-------------------------------|--------------------------------|
-------------------------------|--------------------------------|


                                                                   
--0------4------7----7--9------|----------------------------------|
-------------------------------|--10------10------9----9----------|
-------------------------------|--------------------------10------|
-------------------------------|----------------------------------|


                                                                    
---------------------------4------|----------------2----2--4----2--|
-------------------7----7---------|---------4----------------------|
------------9---------------------|--5-----------------------------|
--10----10------------------------|--------------------------------|


                                                                 
--0------4------7----7--9----7--|--5------5------4----4--0------|
--------------------------------|-------------------------------|
--------------------------------|-------------------------------|
--------------------------------|-------------------------------|


                                                                
-----------------2----2--4------|------------------------------|
--0----0--4---------------------|------------------------------|
--------------------------------|--1------1------3------3------|
--------------------------------|------------------------------|


                                                                  
----------------2------4--2--4--|--7----------------10--9--7--5--|
--0------4----------------------|--------------------------------|
--------------------------------|--------------------------------|
--------------------------------|--------------------------------|


                                                                
--3------0------------------3--|------3--0--------------0------|
----------------3------2-------|----------------3----3---------|
-------------------------------|-------------------------------|
-------------------------------|-------------------------------|


                                                                
---------2----7--0------0------|---------2------7-----------7--|
--0----------------------------|--0--------------------3-------|
-------------------------------|-------------------------------|
-------------------------------|-------------------------------|


                                                              
--3------2------0-------------|------------------------------|
-----------------------3------|--1------0--------------------|
------------------------------|----------------3------1------|
------------------------------|------------------------------|


                                                           
------------------------------|---------------------------|
--2------2--------------------|---------------------------|
----------------0------0------|---------------------------|
------------------------------|--1------------------------|


                                                            
-----------------------------|-----------------------------|
----0------------------------|-----------------------------|
---------4----3--------------|----0------------------------|
-----------------------------|---------4----3--------------|


                                                             
---------------------------1----|--2------------------------|
-------2----2----2----4---------|---------------------------|
--------------------------------|---------------------------|
--0-----------------------------|---------------------------|


                                                      
--------------------------|--------------------------|
--------------------------|--------------------------|
--------------------------|--------------------------|
--------------------------|--------------------------|


                                                      
--------------------------|--------------------------|
--------------------------|--------------------------|
--------------------------|--------------------------|
--------------------------|--------------------------|


                                                      
--------------------------|--------------------------|
--------------------------|--------------------------|
--------------------------|--------------------------|
--------------------------|--------------------------|


                                                      
--------------------------|--------------------------|
--------------------------|--------------------------|
--------------------------|--------------------------|
--------------------------|--------------------------|


                                                      
--------------------------|--------------------------|
--------------------------|--------------------------|
--------------------------|--------------------------|
--------------------------|--------------------------|


                                                          
--------------------------|------7--0--------------------|
--------------------------|----------------4------2------|
--------------------------|------------------------------|
--------------------------|------------------------------|


                                                                 
----------------2----2--4------|----------------2----2--4----2--|
--0------4---------------------|--0------4----------------------|
-------------------------------|--------------------------------|
-------------------------------|--------------------------------|


                                                                  
--0------4------7----7--9----7--|--5------5----4--4----4--0------|
--------------------------------|--------------------------------|
--------------------------------|--------------------------------|
--------------------------------|--------------------------------|


                                                                 
----------------2----2--4------|----------------2----2--4----2--|
--0------4---------------------|--0------4----------------------|
-------------------------------|--------------------------------|
-------------------------------|--------------------------------|


                                                                  
--0------4------7----7--9----7--|--5------5----4--4----4--0------|
--------------------------------|--------------------------------|
--------------------------------|--------------------------------|
--------------------------------|--------------------------------|


                                                                
-----------------2----2--4------|------------------------------|
--0----0--4---------------------|------------------------------|
--------------------------------|--1------1------3------3------|
--------------------------------|------------------------------|


                                                                
----------------2----2--4------|-------------------------------|
--0------4---------------------|-------------------------------|
-------------------------------|--1------1------3----3--3------|
-------------------------------|-------------------------------|


                                                                
-------------------------------|-------------------------------|
--0------0------0----0--0------|-------------------------------|
-------------------------------|--1------1------3----3--3------|
-------------------------------|-------------------------------|


                                                              
----------------2------4------|--3------3------5------5------|
--0------4--------------------|------------------------------|
------------------------------|------------------------------|
------------------------------|------------------------------|


                                                              
--7------7------7------7------|----------------5------5------|
------------------------------|--8------8--------------------|
------------------------------|------------------------------|
------------------------------|------------------------------|


                                                               
----------------2----2---------|------------------------------|
---------4--------------4------|------------------------------|
--5----------------------------|--1------1------3------3------|
-------------------------------|------------------------------|


                                                               
----------------2----2---------|------------------------------|
--0------4--------------4------|------------------------------|
-------------------------------|--1------1------3------3------|
-------------------------------|------------------------------|


                                                               
----------------2----2---------|------------------------------|
--0------4--------------4------|------------------------------|
-------------------------------|--1------1------3------3------|
-------------------------------|------------------------------|


                                                               
----------------2----2---------|------------------------------|
--0------4--------------4------|------------------------------|
-------------------------------|--1------1------3------3------|
-------------------------------|------------------------------|


                                                                
----------------2----2---------|------------------------------||
--0------4--------------4------|------------------------------||
-------------------------------|--1------1------3------3------||
-------------------------------|------------------------------||





Comments


Popular Queen tabs & chords
Breakthru Bass Tabs
Champions Bass Tabs
Ride The Wild Wind Bass Tabs
Killer Queen Chords
Youre My Best Friend 1 Chords
Lt Me Entertain You Tabs
Sail Away Sweet Sister Tabs
Seven Seas Of Rhye 1 Tabs
Somebody To Love 2 Tabs
Fat Bottomed Girls Ukulele


Song lyrics



↑ Back to top | Tablatures and chords are parodies/interpretations of the original songs. You may use it for private study, scholarship, research or language learning purposes only
© 2014 AZChords.com Contact us | Privacy policy | DMCA | Add/correct tabs | Request tabs | Top 50 tabs