» » »

Calling All Girls Bass tabs (ver.1)

Artists:  A B C D E F G H I J K L M N O P Q R S T U V W X Y Z # 

Calling All Girls Bass tabs (ver.1)

Queen
Rating:
0/5 (0 votes)

Hard to play? Try these video lessons and learn fast.
                ++++++++++++++++++++++++++++
| Queen- Calling All Girls |
++++++++++++++++++++++++++++


"Take this message of love..."



Tuning: Standard EADG


Verse
"Calling all boy..."
1.
G|-------------------------------------------------------------------------|
D|-------------------------------------------------------------------------|
A|-0-00--22-0-00--22-0-00--22-0-00--22-0-00--22-0-00--22-0-00--22-0-00--22-|--x2
E|-----33-------33-------33-------33-------33-------33-------33-------33---|

"This message is..."
2.
G|-------------------------------|
D|----------7~\----7~\----7~\----|
A|-0-00--22----------------------|
E|-----33------------------------|

Pre-Chorus
3.
G|----------------------------------------2------|
D|-----------------------------------------2-----|
A|-3x--3x--3x--3x--5x--5x--5x--5x--3x--3x---0-55-|
E|-----------------------------------------------|

Chorus
"Love..."
4.
G|---------------------------------------------------------------------|
D|---------------------------------------------------------------------|
A|--------------5-3--------------5-3--------------5-3--------------5-3-|
E|-3~-33~-33~-3-----3~-33~-33~-3-----3~-33~-33~-3-----3~-33~-33~-3-----|

"For all to hear..."
5.
G|------------------|
D|------------------|
A|--------------5-3-|
E|-3~-33~-33~-3-----|

Verse
"Some sleepless nights..."
6.
G|-------------------------------------------------------------------------|
D|-------------------------------------------------------------------------|
A|-0-00--22-0-00--22-0-00--22-0-00--22-0-00--22-0-00--22-0-00--22-0-00--22-|--x2
E|-----33-------33-------33-------33-------33-------33-------33-------33---|

"This message is..."
7.
G|-------------------------------|
D|----------7~\----7~\----7~\----|
A|-0-00--22----------------------|
E|-----33------------------------|

Pre-Chorus
8.
G|-----------------------------------------2------|
D|--------------------------------7---------2-----|
A|-3x--3x--3x--3x--5x--5x--5x--5x---3x--3x---0-55-|
E|------------------------------------------------|

Chorus
"Love..."
9.
G|---------------------------------------------------------------------|
D|---------------------------------------------------------------------|
A|--------------5-3--------------5-3--------------5-3--------------5-3-|
E|-3~-33~-33~-3-----3~-33~-33~-3-----3~-33~-33~-3-----3~-33~-33~-3-----|

"For all to hear..."
10.
G|------------------|
D|------------------|
A|--------------5-3-|
E|-3~-33~-33~-3-----|

Bridge
11.
G|-------------------------------------------------------------------------|
D|-------------------------------------------------------------------------|
A|-0-00--22-0-00--22-0-00--22-0-00--22-0-00--22-0-00--22-0-00--22-0-00--22-|
E|-----33-------33-------33-------33-------33-------33-------33-------33---|

Pre-Chorus
12.
G|--------2------|
D|---------2-----|
A|-3x--3x---0-55-|
E|---------------|

Chorus
"Love..."
13.
G|---------------------------------------------------------------------|
D|---------------------------------------------------------------------|
A|--------------5-3--------------5-3--------------5-3--------------5-3-|
E|-3~-33~-33~-3-----3~-33~-33~-3-----3~-33~-33~-3-----3~-33~-33~-3-----|

"For all to hear..."
14.
G|------------------|
D|------------------|
A|--------------5-3-|
E|-3~-33~-33~-3-----|

Outro
15.
G|-------------------------------------------------------------------------|
D|-------------------------------------------------------------------------|
A|-0-00--22-0-00--22-0-00--22-0-00--22-0-00--22-0-00--22-0-00--22-0-00--22-|
E|-----33-------33-------33-------33-------33-------33-------33-------33---|

16.
G|-------------------|
D|-------------------|
A|-0~----------------|
E|-------------------|


Please rate thanks!!!


Lyrics:

Calling all boys
Calling all girls
Calling all people on streets
Around the world
Take this message
A message for you
This message is old yeah
This message is true
This message is

Love
Take a message of love
Far and near
Take a message of love
For all to hear
For all to hear

Some sleepless nights in wait for you
Some foreign presence you feel, comes creeping through
Some stream of hope
The whole world through
Spread like some silent disease
You'll get yours too



+++++++++++++++++++++++++++++++++
| Raileff                       |
+++++++++++++++++++++++++++++++++
            
Hard to play? Try these video lessons and learn fast. | Correct




comments powered by Disqus
↑ Back to top | Tablatures and chords are parodies/interpretations of the original songs. You may use it for private study, scholarship, research or language learning purposes only