>
 >
Bohemian Rhapsody 7

Bohemian Rhapsody 7 Guitar Tabs

Queen - Bohemian Rhapsody 7 chords, tabs, tablatures, lyrics

Guitar lessons | Add/correct | Request | Top 50 tabs Artists:  A B C D E F G H I J K L M N O P Q R S T U V W X Y Z 0-9

Bohemian Rhapsody 7 Guitar Tabs – Queen

CD, Sheet music, Poster

Do you like Bohemian Rhapsody 7? Share with your friends now
Bass TabsBass Tabs v2Bass Tabs v3ChordsChords v2Drum TabsTabsTabs v2Tabs v10Tabs v11Tabs v3Tabs v4Tabs v5Tabs v6Tabs v7Tabs v8Tabs v9
----------------------------------------------------------------------------
----------------------------------------------------------------------------

Tuning: Standard EADGBE

|----------------------------------------------------------------|
|-------------------11------8----11b---------13--15-16-13--15-16-|
|------------10r--8----------------------------------------------|
|----8-----------------------------------------------------------|
|----------------------------------------------------------------|
|----------------------------------------------------------------|

--------------15-16-18-18b--18r16-15-16-15h16h15----15-------------|
-16b-16-13-18------------------------------------18----18-16-15-16-|
-------------------------------------------------------------------|
-------------------------------------------------------------------|
-------------------------------------------------------------------|
-------------------------------------------------------------------|

-------------------------------------15-16-18----------------15-16-18--18b-|
15h16h15----15--------------15-16-18----------------15-16-18---------------|
---------17----17-15--15-17-------------------15-17------------------------|
---------------------------------------------------------------------------|
---------------------------------------------------------------------------|
---------------------------------------------------------------------------|

---------------------------------------13---------------------------------|
-15-16-13-15-16-13-15-16-16b-----------------14-14-14-14-14/7-------------|
-----------------------------10-12-13-----13------------------6-6-7h6h4---|
------------------------------------------------------------------------7-|
--------------------------------------------------------------------------|
--------------------------------------------------------------------------|

Then the final Riff:

T = 207

E|---------------------------------|--------------------------------|
B|---------------------------------|--------------------------------|
G|---------------------------------|--------------------------------|
D|---------------------------------|--------------------------------|
A|--6-------------------3--5--6----|--6-----------------3-----------|
E|-------3----4----6---------------|-------3----4----6-----6--------|

---------------------------------|---------------------------------|
---------------------------------|---------------------------------|
---------------------------------|---------------------------------|
---------------------------------|---------------------------------|
--6-------------------3--5--6----|--8-----------------5------------|
-------3----4----6---------------|-------5----6----8-----8------x--|

---------------------------|------------------------------|
---------------------------|------------------------------|
---------------------------|------------------------------|
--8------------------------|----------------------5-------|
--8------------------------|--------------6----6-----6----|
--6------------------------|------------------------------|

----------------------------------|----------------|
----------------------------------|----------------|
----------------------------------|-------6~-------|
--8------8/---3--8----6--8h-6-----|----------------|
--8------8/---3----------------8--|--4-------------|
--6------6/---1-------------------|----------------|

-----------------------------|------------------------------|
-----------------------------|------------------------------|
-----------------------------|------------------------------|
--8------------------8/---3--|--8------------8----8----8----|
--8------------------8/---3--|--8------------6----6----6----|
--6------------------6/---1--|--6---------------------------|

-----------------------------|-------------------|
-----------------------------|-------------------|
-----------------------------|-------------------|
-----------------------------|-------------------|
--6----------------6----5----|--3----------------|
--4----------------4----3----|--1----------------|

-------------------------------|------------------------------|
-------------------------------|------------------------------|
-------------------------------|------------------------------|
--3------------5----3----------|------------------------------|
--1----------------------5h-3--|--3----3--------3----3--------|
-------------------------------|--1----1--------1----1--------|

---------------------------------|------------------------------|
---------------------------------|------------------------------|
---------------------------------|------------------------------|
--3------------------3--5h-3-----|----------------3----3--------|
--1----------1--5-------------5--|--3----3--------1----1--------|
---------------------------------|--1----1----------------------|

-----------------------------|---------------------------------|
-----------------------------|---------------------------------|
-----------------------------|---------------------------------|
----------------3------------|---------------------------------|
--3----3--------1------------|--6-------------------3--5--6----|
--1----1---------------------|-------3----4----6---------------|

--------------------------------|---------------------------------|
--------------------------------|---------------------------------|
--------------------------------|---------------------------------|
--------------------------------|---------------------------------|
--6-----------------3-----------|--6-------------------3--5--6----|
-------3----4----6-----6--------|-------3----4----6---------------|

---------------------------------|
---------------------------------|
---------------------------------|
---------------------------------|
--8-------------------5--7--8----|
-------5----6----8---------------|

-------------------------------------------|
-------------------------------------------|
-------------------------------------------|
-----------------------10--------10--11----|
--9--11--13----11--13--------13------------|
-------------------------------------------|

-------------------------------------------|
-------------------------------------------|
-----------------------------------8--9----|
---------------------9--11--9--11----------|
----------9--11--12------------------------|
--11--12-----------------------------------|

-------------------------------------|
-------------------------------------|
--------------------------------3----|
-----------------3--4--3--4--6-------|
--------3--4--6----------------------|
--4--6-------------------------------|

-------------------------------------||
--------------------6-----6--8--9----||
-----5--7--5--7--8-----8-------------||
--8----------------------------------||
-------------------------------------||
-------------------------------------||

The Final solo, its not very accurate but its ok

Gtr 1
|-----------------------|
|-------8-11------------|
|-----8-----------------|
|---8-------------------|
|-----------------------|
|-----------------------|

Gtr 2
|--------------------------|
|--------------------11----|
|-----------------10-------|
|--------------12----------|
|-----------13-------------|
|--------------------------|


Gtr 1
--------------------------|------------------------------------|
--------8-11b-------------|------------------------------------|
------8---------7----8----|--7---10-8----10---12h13-12---14h15-|
---10---------------------|------------------------------------|
--------------------------|------------------------------------|
--------------------------|------------------------------------|

Gtr 2
----------------------|-----------------------------------|
----------------------|-----------------------------------|
----------12----12----|--12---13-12----7---8h10-8---10h12-|
----------------------|-----------------------------------|
----------------------|-----------------------------------|
----------------------|-----------------------------------|

Gtr 3

|------|---------------11/--15--|
|------|------------------------|
|------|------------------------|
|------|------------------------|
|------|------------------------|
|------|------------------------|

Gtr1
------------------------|------------------|
------------------------|------------------|
--14---14/7----7--------|------------------|
------------------------|------------------|
------------------------|------------------|
------------------------|------------------|

Gtr2
----------------------|------------------|
----------------------|------------------|
--11------------------|------------------|
--------12------------|------------------|
----------------------|------------------|
----------------------|------------------|

Gtr3
-14----15--17--17b------17/|--8------8/10/6--------|---8-----8/10/6--------|
---------------------------|-----------------------|-----------------------|
---------------------------|-----------------------|-----------------------|
---------------------------|-----------------------|-----------------------|
---------------------------|-----------------------|-----------------------|
---------------------------|-----------------------|-----------------------|

and then the last guitar part

-----------------------|-------------------|------------------------|
----------11/-9--9/-8--|--8----------------|--8/-5-------------6----|
-----------------------|-------------------|--------5--3--2---------|
-----------------------|-------------------|------------------------|
-----------------------|-------------------|------------------------|
-----------------------|-------------------|------------------------|

and thats all...


| /  slide up
| \  slide down
| h  hammer-on
| p  pull-off
| ~  vibrato
| +  harmonic
| x  Mute note
| r  Bend Release
| b  Bend
============================================================================





Comments


Popular Queen tabs & chords
'39 2 Chords
Hammer To Fall Chords
Im Love With My Car Tabs
Jealousy 1 Tabs
Leaving Home Ain't Easy Tabs
One Vision Tabs
Put Out The Fire Tabs
The Great Pretender Tabs
We Will Rock You 2 Tabs
We Will Rock You Fast Tabs


Song lyrics



↑ Back to top | Tablatures and chords are parodies/interpretations of the original songs. You may use it for private study, scholarship, research or language learning purposes only
© 2014 AZChords.com Contact us | Privacy policy | DMCA | Add/correct tabs | Request tabs | Top 50 tabs