>
 >
Bohemian Rhapsody 3

Bohemian Rhapsody 3 Guitar Tabs

Queen - Bohemian Rhapsody 3 chords, tabs, tablatures, lyrics

Guitar lessons | Add/correct | Request | Top 50 tabs Artists:  A B C D E F G H I J K L M N O P Q R S T U V W X Y Z 0-9

Bohemian Rhapsody 3 Guitar Tabs – Queen

CD, Sheet music, Poster

Do you like Bohemian Rhapsody 3? Share with your friends now
Bass TabsBass Tabs v2Bass Tabs v3ChordsChords v2Drum TabsTabsTabs v2Tabs v10Tabs v11Tabs v3Tabs v4Tabs v5Tabs v6Tabs v7Tabs v8Tabs v9
Piano arranged for guitar...and more.
The way my band plays Bohemian Rhapsody.

"...open your eyes..."                                    "easy come.."
|---------3-------1-----------8-11-6-11-----------1-1---1-|-----------------|
|-------3---3-----3---------8-----------8-8---8-8-1-1---1-|-----------------|
|-----3-------3---1-------8-------------5-5---5-5-2-2---2-|-8-7-6-7-8-7-6-7-|
|---5-----------5-3-----8---------------5-5---5-5-1-1---1-|-9-8-7-8-9-8-7-8-|
|-5---------------1---6-----------------6-6-6-6-6-3-3---3-|-9-8-7-8-9-8-7-8-|
|-------------------------------------------------1-1-1-1-|-7-6-5-6-7-6-5-6-|

                                              "...me.."
|---------------------------------------5-/13-|---------------------------------|
|-------8-8---8-8---8-8-8-8---6-------6-------|---------8---6-----------8---6---|
|-------8-8-7-6---6-6-6-6-6---5-----5---------|-------7---------------7---------|
|-----8-8-8-8-8-----8-8-8-8---7---7-----------|-----8---------------8-----------|
|-10-10-----8-7-----7-7-7-7-8-8-8-------------|---8-------8---8---8-------8---8-|
|-----------6---------------------------------|-6---------------6---------------|

|-------------------------5---3-----------10----8------------5---5-8-|
|---------8---6---------3---------------8------------------8---6-----|
|-------7-------------3---------------5------------------5-----------|
|-----8-------------5-------5---5---5--------10---10---5-------------|
|---8-------8---8-----------------6------------------6---------------|
|-6---------------3--------------------------------------------------|

|-------------------------5---3-------------------------3---3---3-|
|---------8---6---------3---------------8---8---8-----4-----------|
|-------7-------------3---------------5-------------5-------------|
|-----8-------------5-------5---5---5-----------------------------|
|---8-------8---8-----------------6---------------0---------------|
|-6---------------3-----------------------8---7-----------4---3---|

"mama..."
|-------------------------10----8------------------------------------|
|-----8------------------------------8-8-8-6-6-6---------------------|
|-----8-----------------9------------5-5-5-5-5-5-7-7-7-7-7-7-7-7-7-7-|
|-----8-8------------10------10---10-5-5-5-6-6-6-8-8-8-8-8-8-8-8-8-8-|
|-6-6---6-6-6-5---10-----------------6-6-6-8-8-8-8-8-8-8-8-8-8-8-8-8-|
|---------------8--------------------------------6-6-6-6-6-6-6-6-6-6-|

|---------------6----------------------8-11-6-11----11---11-|
|-----8-8-----8---------8---8--------8-----------10----9----|
|-----8-8---8---------8---7-8------8------------------------|
|---8-8-8-8---------8-----8-8----8--------------------------|
|-6---------------6-------8-6--6----------------------------|
|-------------------------6---------------------------------|

                                  "too late"
|---------------------------------------------------------5---3---|
|---------8---6-----------8---6-----------8---6---------3---------|
|-------7---------------7---------------7-------------3-----------|
|-----8---------------8---------------8-------------5-------5---5-|
|---8-------8---8---8-------8---8---8-------8---8-----------------|
|-6---------------6---------------6---------------3---------------|

|---------10----8------------5---5-8-| 
|-------8------------------8---6-----|
|-----5------------------5-----------|
|---5--------10---10---5-------------|
|-6------------------6---------------|
|------------------------------------|

|-------------------------5---3--------------------------|
|---------8---6---------3---------------8---8---8--------|
|-------7-------------3---------------5------------------|
|-----8-------------5-------5---5---5--------------------|
|---8-------8---8-----------------6----------------------|
|-6---------------3-----------------------8---7---5--4-3-|

|-------------------------10----8------------------------------------|
|-----8------------------------------8-8-8-6-6-6---------------------|
|-----8-----------------9------------5-5-5-5-5-5-7-7-7-7-7-7-7-7-7-7-|
|-----8-8------------10------10---10-5-5-5-6-6-6-8-8-8-8-8-8-8-8-8-8-|
|-6-6---6-6-6-5---10-----------------6-6-6-8-8-8-8-8-8-8-8-8-8-8-8-8-|
|---------------8--------------------------------6-6-6-6-6-6-6-6-6-6-|

solo
|--------------------------8-10-11-8-10-11-13~---13-15-16-18-20~-|
|--------------11p8-11(13)--------------------13-----------------|
|---10(12)10-8---------------------------------------------------|
|-8--------------------------------------------------------------|
|----------------------------------------------------------------|
|----------------------------------------------------------------|

|-20-18-15h16p15h16p15----15----------------------------------|
|----------------------18----18-16-15-16-15h16p15----15-------|
|-------------------------------------------------17----17-15-|
|-------------------------------------------------------------|
|-------------------------------------------------------------|
|-------------------------------------------------------------|

|---------------15-16-18----------------15-16-18-20~----------------------------|
|-------15-16-18---------------15-16-18--------------15-16-13-15-16-13-15-16-18~|
|-15-17------------------15-17--------------------------------------------------|
|-------------------------------------------------------------------------------|
|-------------------------------------------------------------------------------|
|-------------------------------------------------------------------------------|

|----------13---------------------|
|-----------------14-14-14-14/2---|
|-10-12-13----13------------------|
|-------------------------------7-|
|---------------------------------|
|---------------------------------|

opera section
|-------------------------------------------------------------------------------------|
|---------------7-----7---7-----7-----7-----7-----7-7---7-----------------------------|
|-6-6-6-6-6-6-6-7-6-6-5-6-7-6-6-5-6-6-7-6-6-7-6-6-5-5-6-7-6---------8-8-------------6-|
|-7-7-7-7-7-7-7-7-7-7-7-7-7-7-7-7-7-7-7-7-7-7-7-7-7-7-7-7-7-6-6-6-6-6-6-2-2-2-2-2-2-7-|
|---------------5-7-7-6-7-5-7-7-6-7-7---7-7---7-7-6-6-7-5-7-8-8-8-8-6-6-3-3-3-3-2-2-7-|
|-----------------5-5---5---5-5---5-5---5-5---5-5-----5---5-4-4-4-4-6-6-3-3-3-3-0-0-5-|

"galileo figaro" "im just a poor boy..."
|---------------------------------------------------------------------------|
|---------------------------------4-8-8-7-8-4-4-8-7-7-8-4-4-4-8-8-8-6-6-6---|
|-----------------8-7-6-7-8-7-6-7-5-8-8-5-8-5-5-8-5-5-8-5-5-5-8-8-8-5-5-5-7-|
|-----------------9-8-7-8-9-8-7-8-6-8-8-7-8-6-6-8-7-7-8-6-6-6-8-8-8-7-7-7-8-|
|-----------------9-8-7-8-9-8-7-8-6-6-6-6-6-6-6-6-6-6-6-6-6-6-6-6-6-8-8-8-8-|
|-5-5-6-5-3-1-0---7-6-5-6-7-6-5-6-----------------------------------------6-|

|-8-8-8-8-11-6-11----11---11-----------------------------------------------------|
|-----------------10----9--------------------8---8-----------------8-------------|
|----------------------------8-7-6-7-8-7-6-7-8-7-8-------7-7-7---7-8-------7-7-7-|
|----------------------------9-8-7-8-9-8-7-8-8-8-8-8-8-8-8-8-8---8-8-8-8-8-8-8-8-|
|----------------------------9-8-7-8-9-8-7-8-6-8-6-8-8-8-8-8-8---8-6-8-8-8-8-8-8-|
|----------------------------7-6-5-6-7-6-5-6---6---6-6-6-----6---6---6-6-6-----6-|

                                                "no no..."    "mamamia let me go"
|-------------------------------------------------------2-----|---------------|
|---8-------------------------------------------7---7-6-2-----|-----8-8-------|
|-7-8-------7-7-7---------7-7-7---------7-7-7---7-6-7-6-3-7---|---8-8-8-7---7-|
|-8-8-8-8-8-8-8-8---8-8-8-8-8-8---8-8-8-8-8-8---9-7-7-6-4-8-8-|-8-8---8-8-8-8-|
|-8-6-8-8-8-8-8-8---8-8-8-8-8-8---8-8-8-8-8-8---9-7-5-4-4-8-6-|-6-----6---8-8-|
|-6---6-6-6-----6---6-6-6-----6---6-6-6-----6---7-5-----2-6---|-------------6-|

"beelzebub..."
|-------------------5-5-----------------------------------------------------|
|-8-8-------7-7-7-7-5-5-----------------------------------------------------|
|-8-8-7-7-7-7-7-7-7-5-5-7-7-7-7-7-7-7-7-7-7-7-7-7-7-7-7-7-7-7-7-7-7-7-7-7-7-|
|-8-8-8-8-8-7-7-7-7-0-0-8-8-8-8-8-8-8-8-8-8-8-8-8-8-8-8-8-8-8-8-8-8-8-8-8-8-|
|-6-6-8-8-8-5-5-5-5-----8-8-8-8-8-8-8-8-8-8-8-8-8-8-8-8-8-8-8-8-8-8-8-8-8-8-|
|-----6-6-6-------------6-6-6-6-6-6-6-6-6-6-6-6-6-6-6-6-6-6-6-6-6-6-6-6-6-6-|

rock
|-------------------------------------------------------|---------------------|
|-------------------------------------------------------|---------------------|
|-------------------------------------------------------|-8-----------------6~|
|-----------------------------------------------------8-|-8-8-8p6---6---------|
|-6-------3-5-6-6-------3---6-------3-5-6-8-------5---8-|-6-8-----8---8p6/4---|
|---3-4-6---------3-4-6---6---3-4-6---------5-6-8---8-6-|---6-----------------|

|----------------------------------------------------------------------------|
|----------------------------------------------------------------------------|
|-----8---------3------------3---------------3---3---------------------------|
|-8-8-8-6-6-4-3-3-/5-3-------3-----3h5p3-----3---3---------------------------|
|-8-8-6-6-6-4-3-1------5-3---1-3h5-------5---1---1-6-------3-5-6-6-------3---|
|-6-6---4-4-2-1------------1---------------1---1-----3-4-6---------3-4-6---6-|

|---------------------------------------------------------------------|
|---------------------------------------------------------------------|
|---------------------------------3-----5---5h6-------------6---6-8-9-|
|-----------------------------4h6---6h8---8-----------6-7-9---9-------|
|-6-------3-5-6-8-------5h7h8-------------------6-7-9-----------------|
|---3-4-6---------5-6-8-----------------------------------------------|

|----------------------------------------------------------|-----------------------|
|-------------------------------------------8-9--------6---|-------8-11-------8-11-|
|---------------------3-7-5-7-5-7-8-10-8-10--------7-------|-----8----------8------|
|-----------3-4-3-4-6---------------------------8----8---8-|---8----------8--------|
|-----3-4-6-------------------------------------8----------|-----------------------|
|-4-6-------------------------------------------6----------|-6----------6----------|

|----------8-------------------------------15~~--8~-10-/6~|
|--------8---8-9p8-8-9p8-6--8-8h9p8-----------------------|
|------8----------------------------/12-\7----------------|
|---10----------------------------------------------------|
|---------------------------------------------------------|
|-8-------------------------------------------------------|

"nothing really matters...'       rake--|             "..me"
|-------------3---------------------------------4---------------8-10-6-10-4-|
|-------8---------------8-------3-------8-----8-4---6---------8-----------4-|
|-----5-----3---------5-------3-------5---5-8---4---5-------8-------------5-|
|---5-----5-----5---5-------5-------5-----------6---6-----8---------------6-|
|-6---------------6-------5-------6-----------------6---6-------------------|
|---------------------------------------------------6-----------------------|

|-----6----------------------------------------10-13-8-13----13----1-|
|---6---11/9-9/8-8--11/-9--9/8-------------6--------------11----10-1-|
|-7-----------------12/10-10/9-/12/9-7/5/3-------------------------2-|
|------------------------------------------------------------------3-|
|------------------------------------------------------------------3-|
|------------------------------------------------------------------1-|





Comments


Popular Queen tabs & chords
'39 Bass Tabs
Nevermore Chords
Sheer Heart Attack Chords
We Will Rock You Chords
Dont Stop Me Now Drum Tabs
Modern Times Rock 'n' Roll Tabs
New Car Tabs
Party Tabs
Show Must Go On Tabs
Gimme The Prize Ukulele


Song lyrics



↑ Back to top | Tablatures and chords are parodies/interpretations of the original songs. You may use it for private study, scholarship, research or language learning purposes only
© 2014 AZChords.com Contact us | Privacy policy | DMCA | Add/correct tabs | Request tabs | Top 50 tabs