» » »

Queen, Bohemian Phapsody Tabs (ver.1)

Artists:  A B C D E F G H I J K L M N O P Q R S T U V W X Y Z # 

Bohemian Phapsody Tabs (ver.1)

Queen Tabs
 Rating:
4/5 (4 votes)
Bohemian Phapsody lessons Tabs too difficult? Try these video lessons and learn fast
                Bohemian Rhapsody by Queen


Gotta leave you all behind and face the truth
E|--------------------------------------------------|
B|--------------------------------------------------|
G|--------------------------------------------------|
D|--------------------------------------------------|
A|--------------------------------------------------|
E|----------------------------------------5---4---3-|

Mama, ooh, I don't want to die,
E|----------------------------------|
B|----------------------------------|
G|----------------------------------|
D|----------------------------------|
A|-6---5-----3-------2----1---0---1-|
E|----------------------------------|

I sometimes wish I'd never been born at all(Solo)
E|-------------------------------------------------------15-16-18b20-|
B|--------------11----------------15-16-----15-16-18---18------------|
G|---10b12-10-8----12-12-12s17-17--------17----------17--------------|
D|-8-----------------------------------------------------------------|
A|-------------------------------------------------------------------|
E|-------------------------------------------------------------------|

E|-16-15-16-15h16p15--15--------------------------------------15-16-18-|
B|------------------18--18-16-15-16p15--15------------15-16-18---------|
G|------------------------------------17--17-15--15-17-----------------|
D|---------------------------------------------------------------------|
A|---------------------------------------------------------------------|
E|---------------------------------------------------------------------|

E|--------------15-16-18b20-(20)---------------------------------------|
B|------15-16-18------------------15-16----15-16---15-16-18---------18-|
G|-15-17--------------------------------17------17---------------------|
D|----------------------------------------------------------15-17-18---|
A|---------------------------------------------------------------------|
E|---------------------------------------------------------------------|

E|------------------------|
B|------------------------|
G|----18-18-18------------|
D|-18----------11h12p11---|
A|---------------------12-|
E|------------------------|

                                 A#     A#      A#
Beelzebub has a devil put aside for me, for me, for me

E|-----------------------------------------------|
B|-----------------------------------------------|
G|-----------------------------------------------|
D|-----------------------------------------------|
A|-6-----3h5-6-6------3---6-----3h5-6-8------5---|
E|--3-4-6-------3-4-6---6--3-4-6-------5-6-8---8-|

   A#                    D#         A#       D#
So you think you can stone me and spit in my eye E|---------------|
                                                 B|---------------|
                                                 G|-----------6b8-|
                                                 D|-8-6-8-5-------|
                                                 A|--------8-5----|
                                                 E|---------------|

   A#                   D#           A#      D#
So you think you can love me and leave me to die E|-----|
                                                 B|-----|
                                                 G|-----|
                                                 D|-----|
                                                 A|-8-6-|
                                                 E|-6-4-|
F   Bb 
Oh, baby, E|----------|
          B|----------|
          G|----------|
          D|-3-5-3----|
          A|------5-3-|
          E|----------|

can't do this to me, baby, E|-------------|
                           B|-------------|
                           G|-------------|
                           D|------3------|
                           A|-1s3-5-5-3-3-|
                           E|-------------|

F             Bb      F          Bb
Just gotta get out, just gotta get right outta here

E|------------------------------------------------|
B|------------------------------------------------|
G|------------------------------------------------|
D|------------------------------------------------|
A|-6-----3h5-6-6------3---6-----3h5-6-8-----5h7-8-|
E|--3-4-6-------3-4-6---6--3-4-6-------5-6-8------|

|----------------------------------------|
|----------------------------------------|
|----------------------------------------|
|-5-7-8---7-8-10---8-10-11---------------|
|----------------------------------------|
|---------------------------7----4----6--|

4'51" middle             right                     left
|-----------------------|-------------------------|-----------------------------------|
|-----------------------|-------------------------|-----------------------------------|
|-------------6---6-8-9-|-------------------------|-----------------------------------|
|-------6-7-9---9-------|-------------------6-8-8-|------------------------------8----|
|-6-7-9-----------------|---------6-8-9-8-9-------|-----------------8----8-10-11-8----|
|-----------------------|-8-6-8-9-----------------|-10-8-10-8-10-11---11---------6----|

E|------------------------|
B|---8-11-------11---9-12-|
G|--8---------10----8-----|
D|-8--------12----10------|
A|--------13--------------|
E|------------------------|

three gtrs arr. for one                                         5'9"
|------------------------|              |------------------------------|
|-8----8----8~9----9-8---| <-right   /->|-6---8h9p9-----8-11-10___\3---|
|-7----8v---7-----10-8---| <-left---/   |-7---8h10p8---10-12-11___\8---|
|------------------------|              |------------------------------|
|-2----3----2------5-3---| <-two gtrs-->|-1--------6----------5--------|
|------------------------|              |------------------------------|

5'10"
|-//15-14---15-17-17b18v__\8--8/10\6--/8--8/10\6----|
|-----------17-19-19b20v__\9--9/11\8---8----11\8----|
|-//15-14-------------------------------------------|
|---------------------------------------------------|
|---------------------------------------------------|
|---------------------------------------------------|

Nothing really matters, Anyone can see,
Nothing really matters,
Nothing really matters to me

                   F 
Any way the wind blows

5'39" right          left     /finger picked/
|------------------|-----------------------|
|-11\9---9\8---8v--|-8\5-------------------|
|------------------|-------5\3__\2__/10vv--|
|------------------|-----------------------|
|------------------|-----------------------|
|------------------|-----------------------|


Lyrics:
 
Is this the real life?
Is this just fantasy?
Caught in a landslide,
No escape from reality.
Open your eyes, Look up to the skies and see,
I'm just a poor boy, I need no sympathy,
Because I'm easy come, easy go, Little high, little low,
Any way the wind blows doesn't really matter to me, to me.

Mama just killed a man,
Put a gun against his head, pulled my trigger, now he's dead.
Mama, life had just begun,
But now I've gone and thrown it all away.
Mama, ooh, Didn't mean to make you cry,
If I'm not back again this time tomorrow,
Carry on, carry on as if nothing really matters.

Too late, my time has come,
Sends shivers down my spine, body's aching all the time.
Goodbye, ev'rybody, I've got to go,
Gotta leave you all behind and face the truth.
Mama, ooh, I don't want to die,
I sometimes wish I'd never been born at all.

I see a little silhouetto of a man,
Scaramouche, Scaramouche, will you do the Fandango.
Thunderbolt and lightning, very, very fright'ning me.
(Galileo.) Galileo. (Galileo.) Galileo, Galileo figaro
Magnifico. I'm just a poor boy and nobody loves me.
He's just a poor boy from a poor family,
Spare him his life from this monstrosity.
Easy come, easy go, will you let me go.
Bismillah! No, we will not let you go.
(Let him go!) Bismillah! We will not let you go.
(Let him go!) Bismillah! We will not let you go.
(Let me go.) Will not let you go.
(Let me go.) Will not let you go. (Let me go.) Ah.
No, no, no, no, no, no, no.
(Oh mama mia, mama mia.) Mama mia, let me go.
Beelzebub has a devil put aside for me, for me, for me.

So you think you can stone me and spit in my eye.
So you think you can love me and leave me to die.
Oh, baby, can't do this to me, baby,
Just gotta get out, just gotta get right outta here.

Nothing really matters, Anyone can see,
Nothing really matters,
Nothing really matters to me.

Anyway the wind blows.
            
Submit corrections

comments powered by Disqus
↑ Back to top | Queen Tabs for Bohemian Phapsody. Lyrics for acoustic guitar and electric guitar. Tablatures and chords are parodies/interpretations of the original songs. You may use it for private study, scholarship, research or language learning purposes only