>
 >
Bohemain Rhapsody

Bohemain Rhapsody Guitar Tabs

Queen - Bohemain Rhapsody chords, tabs, tablatures, lyrics

Guitar lessons | Add/correct | Request | Top 50 tabs Artists:  A B C D E F G H I J K L M N O P Q R S T U V W X Y Z 0-9

Bohemain Rhapsody Guitar Tabs – Queen

CD, Sheet music, Poster

Do you like Bohemain Rhapsody? Share with your friends now
Tabs
2'25" two gtrs arr. for one
|------------|----------------------------------|----|
|------------|----------------------------------|----|
|------------|-8-------5----10------------------|-0/-|
|------------|-8-------5----10-------------8----|-/0-|
|------------|-6----5--3-----8----7-6--5---8----|----|
|-5----4--3--|-----------------------------6----|----|

|----------------------------------------------------------------------|
|----------------------------------------------------------------------|
|-8--------------------5--------------------------6-----------------2--|
|-8--------------------5--------------------------6-----6-5-4---3---2--|
|-6----5---3vv---------3----3-1-----8----7-6--5---4-----4-3-2---1---0--|
|--------------4-3-2-3----------3-1------------------------------------|

solo 
|-------------------------------------------------------------------------|
|------------------11v---8---11b13vv------13v---15-16-13v---15-16-b18v----|
|-----10b12__r10p8---------------------(xx)-------------------------------|
|-8-----------------------------------------------------------------------|
|-------------------------------------------------------------------------|
|-------------------------------------------------------------------------|
                                                                        
|----------------15--16--18--b20v-----18--16--15-16-15h16p15----15---------------------------------------|
|------------18----------------------------------------------18----18-16-15-16-15h16p15----15------------|
|--------17-----------------------------------------------------------------------------17----17-15-15vv-|
|---x-17-------------------------------------------------------------------------------------------------|
|--------------------------------------------------------------------------------------------------------|
|--------------------------------------------------------------------------------------------------------|

|------------------15-16-18-------------------15-16-18--b20v--|
|---------15-16-18-------------------15-16-18-----------------|
|--15--17----------------------15-17--------------------------|
|-------------------------------------------------------------|
|-------------------------------------------------------------|
|-------------------------------------------------------------|

|------------------------------------------------------13------------9-9-9__\2------------|
|-15-16-13v---15-16-13v---15-16-b18vv-----------------------------------------2---h3p2p0--|
|----------------------------------------10-12-b13v----------b13v-----------------------2-|
|-----------------------------------------------------------------------------------------|
|-----------------------------------------------------------------------------------------|
|-----------------------------------------------------------------------------------------|

4'7" two gtrs arr. for one
|-----|------------------------------------------------------------------------------------------|
|-----|------------------------------------------------------------------------------------------|
|-----|------------------------------------------------------------------------------------------|
|-8---|------------------------------------------------------------------------------------------|
|-8---|-6---------------3-5-6---6-------------3-------6---------------3-5-6---8-------------5----|
|-6---|-----3---4---6---------------3---4---6---6---------3---4---6---------------5---6---8---8--|

|-----------------------------------------------------------------------------------------|
|-----------------------------------------------------------------------------------------|
|-------8--8----------------------6v-------------8--8--8------------------3---------------|
|-8-----8--8--8---8---6-8-6------------8----8----8--8--8--6---------------3---3h5--3------|
|-8-----6--6--8-------------8----------8----8----6--6--6--6---------------1-----------5-3-|
|-6-----6--6--6---------------9--------6----6-------------4----4--3--1--------------------|

|-------------------------------------------|
|-------------------------------------------|
|------3-----------------------3---------3--|
|------3--------3-5p3----------3---------3--|
|------1----4h5-------5p3------1---------1--|
|-1-----------------------1---------1-------|

|----------------------------------------------------------------------------------------------|
|----------------------------------------------------------------------------------------------|
|----------------------------------------------------------------------------------------------|
|----------------------------------------------------------------------------------------------|
|-6---------------3-5-6---6-------------3-------6---------------3-5-6---8---------------5-7-8--|
|-----3---4---6---------------3---4---6---6---------3---4---6---------------5---6---8----------|

|----------------------------------------|
|----------------------------------------|
|----------------------------------------|
|-5-7-8---7-8-10---8-10-11---------------|
|----------------------------------------|
|---------------------------7----4----6--|

4'51" middle             right                     left
|-----------------------|-------------------------|-----------------------------------|
|-----------------------|-------------------------|-----------------------------------|
|-------------6---6-8-9-|-------------------------|-----------------------------------|
|-------6-7-9---9-------|-------------------6-8-8-|------------------------------8----|
|-6-7-9-----------------|---------6-8-9-8-9-------|-----------------8----8-10-11-8----|
|-----------------------|-8-6-8-9-----------------|-10-8-10-8-10-11---11---------6----|

left         right       left
|-------3-6-|---------6-|----------------|
|-x---4-----|-------6---|--------8-b13v--|
|---3-------|-7---7-----|-8----8---------|
|-----------|---8-------|---10-----------|
|-6---------|-5---------|-4--------------| |-6---8h9p9-----8-11-10___\3---|
|-7----8v---7-----10-8---| |-1--------6----------5--------|
|------------------------|              |------------------------------|

5'10"
|-//15-14---15-17-17b18v__\8--8/10\6--/8--8/10\6----|
|-----------17-19-19b20v__\9--9/11\8---8----11\8----|
|-//15-14-------------------------------------------|
|---------------------------------------------------|
|---------------------------------------------------|
|---------------------------------------------------|

5'39" right          left     /finger picked/
|------------------|-----------------------|
|-11\9---9\8---8v--|-8\5-------------------|
|------------------|-------5\3__\2__/10vv--|
|------------------|-----------------------|
|------------------|-----------------------|
|------------------|-----------------------|


solo from Live Killers
~1 : hp

|-------------------------------------------------------------------|
|--------------------11----8-8-11b13vvv---13--15-16-13--15-16-b18---|
|------10b12--r10p8-------------------------------------------------|
|--8----------------------------------------------------------------|
|-------------------------------------------------------------------|
|-------------------------------------------------------------------|
                                         1                 1
|---------15-16-18-b20-----18r16-15-16-15~16----15-------------------|
|-16--18-------------------------------------18----18-16-15~16-------|
|----------------------------------------------------------------13--|
|--------------------------------------------------------------------|
|--------------------------------------------------------------------|
|--------------------------------------------------------------------|
          1
|------------------18-18------------------15-16-18----|
|-15-----------------------------15-16-18-------------|
|----17-15~17--------------15-17----------------------|
|-----------------------------------------------------|
|-----------------------------------------------------|
|-----------------------------------------------------|

|----------------15-16-18-20-20---------------------------------13-----|
|-------15-16-18--------------------15-16-13---15-16-13---15-16--------|
|-15-17----------------------------------------------------------------|
|----------------------------------------------------------------------|
|----------------------------------------------------------------------|
|----------------------------------------------------------------------|

|-13-15---13---------------------------------|
|-------------18r16------14-16-14\2-h3p2p0---|
|-------------------13---------------------2-|
|--------------------------------------------|
|--------------------------------------------|
|--------------------------------------------|





Comments


Popular Queen tabs & chords
Bicycle Race Bass Tabs
Death On Two Legs Bass Tabs
You Take My Breath Away 1 Chords
A Kind Of Magic Live Tabs
Don't Stop Me Now 1 Tabs
God Saved Our Queen Tabs
Now Im Here 3 Tabs
The Show Must Go On Tabs
You And I 1 Tabs
My Melancholy Blues Ukulele


Song lyrics



↑ Back to top | Tablatures and chords are parodies/interpretations of the original songs. You may use it for private study, scholarship, research or language learning purposes only
© 2014 AZChords.com Contact us | Privacy policy | DMCA | Add/correct tabs | Request tabs | Top 50 tabs