» » »

Queen, Battle Tabs (ver.1)

Artists:  A B C D E F G H I J K L M N O P Q R S T U V W X Y Z # 

Battle Tabs (ver.1)

Queen Tabs
Rating:
0/5 (0 votes)
Battle lessons Tabs too difficult? Try these video lessons and learn fast
                (Theme)

This song is Battle Theme by Queen of the album Flash Gordon, I know its not really in 
it noticed that there aren't any tabs for it,
and it is a very cool song to play. I've divided up the song into 3 parts, riffs, guitar 
trumpet solos arranged for guitar.

NOTES: - The numbers above the tab is the time in the song that the part is played, as
parts are hard to find with so much going on.

       - The = in the tab means hold, the length of the hold isn't exact, but it should
you a good idea when listening to the song.

----------------------------------------------------RIFFS:

These two are the main riffs of the song
|--0------0------0---------2------0-------|
|--2------2------2---------3------2-------|
|--2------2------2---------2------2-------|
|--2------2------2---------4------2-------|
|--0------0------0---------0------0-------|
|-----------------------------------------|

|-----------------------------------------|
|--14\-----14\12--12-----12\10--10\-------|
|--14\-----14\12--12-----12\10--10\-------|
|--14\-----14\12--12-----12\10--10\-------|
|-----------------------------------------|
|-----------------------------------------|
|
|-----------------------------------------|
|-----2-2-----------2-2-------------------|
|-----2-2-----------2-2-------------------|
|-----2-2-----------2-2-------------------|
|-----0-0-----------0-0-------------------|
|-----------------------------------------|

these are the riffs under the solos
0:18, 1:01
|--2---------------------3----------------|
|--3-----2---3---2---3---3---2------------|
|--2-----2---2---2---2---0---2------------|
|--0-----2---0---2---0-------2------------|
|--------0-------0-----------0------------|
|-----------------------------------------|

0:31               0:35
|--2================-3====================|
|--3================-0====================|
|--2================-0====================|
|--0================-0====================|
|--------------------2====================|
|--------------------3====================|

0:39          0:41
|-2======-2===----------------------------|
|-3======-3===-2====----------------------|
|-2======-2===-2====----------------------|
|-0======-0===-2====----------------------|
|--------------0====----------------------|
|-----------------------------------------|

----------------------------------------------------GUITAR SOLOS:

0:19
|-----------------------------------------|
|--17==b19---17==b19---19--20b22----------|
|-----------------------------------------|
|-----------------------------------------|
|-----------------------------------------|
|-----------------------------------------|

0:35
|--17===========--------------------------|
|--20b22========--------------------------|
|-----------------------------------------|
|-----------------------------------------|
|-----------------------------------------|
|-----------------------------------------|

1:01
|-----------------------------------------|
|--20b22---17==b19--17==b19--19--20b22----|
|-----------------------------------------|
|-----------------------------------------|
|-----------------------------------------|
|-----------------------------------------|

1:10
|-----------------------------------------|
|--20b22---20b22---20b22---20b22=---------|
|-----------------------------------------|
|-----------------------------------------|
|-----------------------------------------|
|-----------------------------------------|

1:30
|-----------------------------------------|
|--------------------13-13-13-14-13-------|  Play Twice
|--------------------13-13-13-13-13-------|
|--11-11-11-12-11-------------------------|
|--12-12-12-12-12-------------------------|
|-----------------------------------------|


----------------------------------------------------TRUMPET SOLOS:

0:23
|--------12----------------12-------------|
|--10--------------10-10------------------|
|-----------------------------------------|
|-----------------------------------------|
|-----------------------------------------|
|-----------------------------------------|

0:31
|-----------5---7-5---5---7-5---5---------|
|-------------------8---------8-----------|
|-------7---------------------------------|
|----7------------------------------------|
|-----------------------------------------|
|-----------------------------------------|

|-----------------------------------------|
|--10-8-7-8-7---7-------------------------|
|-------------9---9-7-9-7-5-4-------------|
|-----------------------------7-----------|
|-----------------------------------------|
|-----------------------------------------|

1:13
|-----------5---7-5---5-------------------|
|-------------------8---8-7-8-7-5-7-5-----|
|--------7----------------------------7==-|
|-----7-----------------------------------|
|--5--------------------------------------|
|-----------------------------------------|

1:39
|-----------5---7-5---5-------------------|
|-------------------8---8-7-8-7-5-7-5-----|
|--------7----------------------------9==-|
|-----7-----------------------------------|
|--5--------------------------------------|
|-----------------------------------------|

Legend
\     = slide down
/     = slide up
=     = hold note (gives you a rough idea, but listen to the song to get the actual timing)
b     = bend into the following note
            

comments powered by Disqus
↑ Back to top | Queen Tabs for Battle. Lyrics for acoustic guitar and electric guitar. Tablatures and chords are parodies/interpretations of the original songs. You may use it for private study, scholarship, research or language learning purposes only