» » »

Queen, Anotherone Bites The Dust-Exactly Right Bass tabs (ver.1)

Artists:  A B C D E F G H I J K L M N O P Q R S T U V W X Y Z # 

Anotherone Bites The Dust-Exactly Right Bass tabs (ver.1)

Queen Tabs
 Rating:
4/5 (4 votes)
Anotherone Bites The Dust-Exactly Right lessons Tabs too difficult? Try these video lessons and learn fast
1
                G|-------------------------
D|-------------------------
A|-------------------------  X2
E|--530-0-0---00-0-3-0-5--

G|---------------------
D|---------------------
A|---------------------   X5
E|--0-0-0--00-0-3-0-5--

G|-------------------
D|--------------5----
A|--3-3--3-3-55------
E|----------------3--

G|----------------
D|----------------
A|--3-3--3-3-5----
E|-------------3--


G|-------------------
D|--------------5----
A|--3-3--3-3-55------
E|----------------3--

G|-------------
D|-------------
A|-----------5- 
E|--5-5--5-5---

G|---------------------
D|---------------------
A|--------------------- X3
E|--0-0-0--00-0-3-0-5--

G|-----------------
D|-----------------
A|-----------3-----  
E|--3--333353---5--

G|---------------------
D|---------------------
A|--------------------- X2
E|--0-0-0--00-0-3-0-5--










Riff A
G|-------------------------
D|-------------------------
A|-------------------------
E|--530-0-0---00-0-3-0-5--



G|---------------------
D|---------------------
A|---------------------
E|--0-0-0--00-0-3-0-5--

G|-------------------
D|--------------5----
A|--3-3--3-3-55------
E|----------------3--

G|----------------
D|----------------
A|--3-3--3-3-5----
E|-------------3—

G|-------------------
D|--------------5----
A|--3-3--3-3-55------
E|----------------3--

G|-------------
D|-------------
A|-----------5-   
E|--5-5--5-5---

G|------------------------
D|------------------------
A|------------------------
E|-530-0-0---00-0-3-0-5--
 
G|---------------------
D|---------------------
A|---------------------
E|--0-0-0--00-0-3-0-5--

G|------------------------
D|------------------------
A|------------------------
E|-530-0-0-0--00-0-3-0-5--

G|-----------------
D|-----------------
A|-----------3-----  
E|--3--333353---5—

Break 46 seconds






G|-------------------------
D|-------------------------
A|-------------------------
E|--530-0-0---00-0-3-0-5--

G|---------------------
D|---------------------
A|--------------------- X2
E|--0-0-0--00-0-3-0-5--

Riff A
G|-------------------------
D|-------------------------
A|-------------------------
E|--530-0-0---00-0-3-0-5--




G|-------------------
D|--------------5----
A|--3-3--3-3-55------
E|----------------3--



G|----------------
D|----------------
A|--3-3--3-3-5----
E|-------------3--
I'm standing on my own two feet


G|-------------------
D|--------------5----
A|--3-3--3-3-55------
E|----------------3--
Out of the doorway the bullets rip


G|-------------
D|-------------
A|-----------5-   
E|--5-5--5-5---
Repeating to the sound of the beat

Riff A
G|--------------------
D|--------------------
A|--------------------
E|-0-0-0--00-0-3-0-5--
              Another one bites the dust

Riff B
G|---------------------
D|---------------------
A|---------------------
E|--0-0-0--00-0-3-0-5--
           Another one bites the dust

Riff A
G|-------------------------
D|-------------------------
A|-------------------------
E|--530-0-0---00-0-3-0-5--
And another one gone and another one gone Another one bites the dust

Riff F
G|-----------------
D|-----------------
A|-----------3-----
E|--3--333353---5--
Hey, I'm gonna get you too Another one bites the dust

Riff A
G|------------------------
D|------------------------
A|------------------------  (Play twice)
E|-530-0-0---00-0-3-0-5--

Riff C
G|-------------------
D|--------------5----
A|--3-3--3-3-55------
E|----------------3--
alright

Riff D
G|----------------
D|----------------
A|--3-3--3-3-5----
E|-------------3--

Riff C
G|-------------------
D|--------------5----
A|--3-3--3-3-55------
E|----------------3--

Riff E
G|--------------------
D|--------------------
A|-----------5--------
E|--5-5--5-5-----5-3--
            
Submit corrections

comments powered by Disqus
↑ Back to top | Queen Bass for Anotherone Bites The Dust-Exactly Right. Lyrics for acoustic guitar and electric guitar. 1 Tablatures and chords are parodies/interpretations of the original songs. You may use it for private study, scholarship, research or language learning purposes only