>
 >
Another One Bites The Dust 2

Another One Bites The Dust 2 Guitar Tabs

Queen - Another One Bites The Dust 2 chords, tabs, tablatures, lyrics

Guitar lessons | Add/correct | Request | Top 50 tabs Artists:  A B C D E F G H I J K L M N O P Q R S T U V W X Y Z 0-9

Another One Bites The Dust 2 Guitar Tabs – Queen

CD, Sheet music, Poster

Do you like Another One Bites The Dust 2? Share with your friends now
Bass TabsBass Tabs v2Bass Tabs v3Bass Tabs v4Bass Tabs v5Bass Tabs v6ChordsChords v2Chords v3Drum TabsTabsTabs v2Tabs v3Ukulele
------------------|--0---0---0---0---0---0---0---0---0---0--0---0---0---|
------------------|--12--12----------12--12------12--12-----12--12------|
------------------|--12--12----------12--12------12--12-----12--12------|
------------------|--12--12--12--12--12--12--12--12--12--12-12--12--12--|
------------------|-----------------------------------------------------|
------------------|-----------------------------------------------------|


                                       
--0---0---0---0------0-------------0--|
--12--12--12--12-----1--5--5-0--5-----|
--12--12--12--12-----2--5--5-7--5-----|
--12--12--12--12--7--2--7--7-0--7-----|
---------------------1--7--7----7-----|
------------------6-------------------|


                                                          
--0---0---0----0----0---0---0----0---0---0--0----0---0---|
--12--12------------12--12-------12--12-----12---12------|
--12--12------------12--12-------12--12-----12---12------|
--12--12--12---12---12--12--12---12--12--12-12---12--12--|
---------------------------------------------------------|
---------------------------------------------------------|


                                                                        
--0---0---0---0-----0---0----0---|------------------|------------------|
--12--12--12--12-----------0-----|------------------|------------------|
--12--12--12--12-----------7-5---|------------------|------------------|
--12--12--12--12----10--10-0-7---|------------------|------------------|
--------------------12--12---7---|------------------|------------------|
--------------------12--12-------|------------------|------------------|
                                                                          
                                                      
--0---0---0---0---0---0---0---0---0---0--0---0---0---|
--12--12----------12--12------12--12-----12--12------|
--12--12----------12--12------12--12-----12--12------|
--12--12--12--12--12--12--12--12--12--12-12--12--12--|
-----------------------------------------------------|
-----------------------------------------------------|


                                  
--0---0---0---0-----0---0----0---|
--12--12--12--12-----------0-----|
--12--12--12--12-----------7-5---|
--12--12--12--12----10--10-0-7---|
--------------------12--12---7---|
--------------------12--12-------|


                                                      
--0---0---0---0---0---0---0---0---0---0--0---0---0---|
--12--12----------12--12------12--12-----12--12------|
--12--12----------12--12------12--12-----12--12------|
--12--12--12--12--12--12--12--12--12--12-12--12--12--|
-----------------------------------------------------|
-----------------------------------------------------|


                                                                            
--0---0---0---0------0---------------|------------------|------------------|
--12--12--12--12--------5--5--0--5---|------------------|------------------|
--12--12--12--12-----5--5--5--7--5---|------------------|------------------|
--12--12--12--12--7--7--7--7--0--7---|------------------|------------------|
---------------------7--7--7-----7---|------------------|------------------|
------------------6--6---------------|------------------|------------------|
                                                                       
                                                      
--0---0---0---0---0---0---0---0---0---0--0---0---0---|
--12--12----------12--12------12--12-----12--12------|
--12--12----------12--12------12--12-----12--12------|
--12--12--12--12--12--12--12--12--12--12-12--12--12--|
-----------------------------------------------------|
-----------------------------------------------------|


                                        
--0---0---0---0------0--------------0--|
--12--12--12--12--------5--5--0--5-----|
--12--12--12--12-----5--5--5--7--5-----|
--12--12--12--12--7--7--7--7--0--7-----|
---------------------7--7--7-----7-----|
------------------6--6-----------------|


                                                      
--0---0---0---0---0---0---0---0---0---0--0---0---0---|
--12--12----------12--12------12--12-----12--12------|
--12--12----------12--12------12--12-----12--12------|
--12--12--12--12--12--12--12--12--12--12-12--12--12--|
-----------------------------------------------------|
-----------------------------------------------------|


                                                                            
--0---0---0---0------0---------------|------------------|------------------|
--12--12--12--12--------5--5--0--5---|------------------|------------------|
--12--12--12--12-----5--5--5--7--5---|------------------|------------------|
--12--12--12--12--7--7--7--7--0--7---|------------------|------------------|
---------------------7--7--7-----7---|------------------|------------------|
------------------6--6---------------|------------------|------------------|


                                     
                                                                              
-------------------|-------------------|------------------|------------------|
-------------------|-------------------|------------------|------------------|
-------------------|-------------------|------------------|------------------|
-------------------|-------------------|------------------|------------------|
-------------------|-------------------|------------------|------------------|
--------------3b---|--0----------------|------------------|------------------|


                                                      
                                                                 
------------------------|--------------------|-------------------|
------------------------|--------------------|-------------------|
------------------------|--------------------|-------------------|
------------------------|--------------------|-------------------|
-------------0--0--0----|--------------------|-------------------|
--2------2-2------------|--2------------3b---|--0----------------|

                                                                         
                                                                           
-------------------------|------------------------|-------------------------|
-------------------------|------------------------|-------------------------|
----------------0--------|------------------------|----------------0--------|
--------------0----------|--------------0---------|--------------0----------|
--3--3---3--4------------|--3--3---3--4-----------|--3--3---3--4------------|
--------------------3----|-------------------3----|--------------------3----|


                                                                
------------------------|-------------------|------------------|
------------------------|-------------------|------------------|
------------------------|-------------------|------------------|
------------------------|-------------------|------------------|
--0--0--0--1-2----------|-------------------|------------------|
-------------------3b---|--0----------------|------------------|
                                                                            
                                                                
------------------------|--------------------|-------------------|
------------------------|--------------------|-------------------|
------------------------|--------------------|-------------------|
------------------------|--------------------|-------------------|
-------------0--0--0----|--------------------|-------------------|
--2------2-2------------|--2------------3b---|--0----------------|
                                                                             
-------------------------|------------------------|-------------------------|
-------------------------|------------------------|-------------------------|
----------------0--------|------------------------|----------------0--------|
--------------0----------|--------------0---------|--------------0----------|
--3--3---3--4------------|--3--3---3--4-----------|--3--3---3--4------------|
--------------------3----|-------------------3----|--------------------3----|


                                                                
------------------------|-------------------|------------------|
------------------------|-------------------|------------------|
------------------------|-------------------|------------------|
------------------------|-------------------|------------------|
--0--0--0--1-2----------|-------------------|------------------|
-------------------3b---|--0----------------|------------------|
                                                                        
                                                                  
------------------------|--------------------|-------------------|
------------------------|--------------------|-------------------|
------------------------|--------------------|-------------------|
------------------------|--------------------|-------------------|
-------------0--0--0----|--------------------|-------------------|
--2------2-2------------|--2------------3b---|--0----------------|

                                                                             
-------------------------|------------------------|-------------------------|
-------------------------|------------------------|-------------------------|
----------------0--------|------------------------|----------------0--------|
--------------0----------|--------------0---------|--------------0----------|
--3--3---3--4------------|--3--3---3--4-----------|--3--3---3--4------------|
--------------------3----|-------------------3----|--------------------3----|


                         
-----------------------||
-----------------------||
-----------------------||
-----------------------||
--0--0--0--1-2---------||
-----------------------||





Comments


Popular Queen tabs & chords
A Winter's Tale Bass Tabs
Body Languge Bass Tabs
Dancer Bass Tabs
The Invisible Man Bass Tabs
Crazy Little Thing Called Love Chords
Bohemian Rhapsody 2 Tabs
Hammer To Fall Tabs
Lazing On A Sunday Afternoon 1 Tabs
Who Needs You 1 Tabs
Small Ukulele


Song lyrics



↑ Back to top | Tablatures and chords are parodies/interpretations of the original songs. You may use it for private study, scholarship, research or language learning purposes only
© 2014 AZChords.com Contact us | Privacy policy | DMCA | Add/correct tabs | Request tabs | Top 50 tabs