» » »

Another One Bites The Dust Bass tabs (ver.2)

Artists:  A B C D E F G H I J K L M N O P Q R S T U V W X Y Z # 

Another One Bites The Dust Bass tabs (ver.2)

Queen
Rating:
2.7/5 (47 votes)

Hard to play? Try these video lessons and learn fast.
                
G --------------------------
D --------------------------
A -1----------------------1-
E ---4-1--1--1---1-11-4-1---


G ---6-66---8-----6-66---------6-66---8----------------
D -----------------------------------------------------
A -4------6-----4------6-----4------6------1-1--1-13---
E ------------4------------4------------4------------4-

There are really only two pretty easy parts to the song.
You start out by playing the first part like 6 times or
something and then you play the second. You then go back
to the first and i'm not sure about the rest. You have
to hear the song first to understand.

                            whoever believes in him shall not perish 
                            but have everlasting life."
                                           John 3:16
            
Hard to play? Try these video lessons and learn fast. | Correct




comments powered by Disqus
↑ Back to top | Tablatures and chords are parodies/interpretations of the original songs. You may use it for private study, scholarship, research or language learning purposes only