>
 >
'39

'39 Guitar Tabs

Queen - '39 chords, tabs, tablatures, lyrics

Guitar lessons | Add/correct | Request | Top 50 tabs Artists:  A B C D E F G H I J K L M N O P Q R S T U V W X Y Z 0-9

'39 Guitar Tabs – Queen

CD, Sheet music, Poster

Do you like '39? Share with your friends now
Bass TabsChordsChords v2Chords v3TabsTabs v2
100% CORRECT

intro:

     G      D D  Em       C C  G       D D  G       G G
e|---3------2-2---0------------3-------2-2--3-------3-3---|
B|---3------3-3---0-------1-1--3----0--3-3--3-------3-3---|
G|---0------2-2---0----0--0-0--0-----2-2-2--0----0--0-0---|
D|---0----0-0-0---2-2/4---2-2--0-0h2---0-0--2-0h2---0-0---|
A|---2-2h3------2-2-2/4---3-3--2------------3-------2-2---|
E|-3-3-------------------------3--------------------3-3---|

     G      D D  Em         C C            G
e|---3------2-2---0--------------0-0--2-2--3--|
B|---3------3-3---0---------1-1--0-0--3-3--3--|
G|---0------2-2---0------0--0-0--0-0--2-0--0--|
D|---0----0-0-0---2--2/4----2-2--2-2--0-0--0--|
A|---2-2h3------2-2--2/4----3-3--3-3-------2--|
E|-3-3-------------------------------------3--|


 G        D                                  Em
          In the   year of '39.... Assembled here the volunteers

         C~       G          D              Em          Em7  In the
 days when lands were few   Here the ship sailed out into the

 C~                    D(add G) Dmaj       G
 Blue and sunny morn   Sweetest sight ever seen.

 G   D                           B7
 And night followed day, and the story tellers say

          Em                   Am    (then passing notes C B A F#)
 That the score brave souls inside

     G                         D
 For many a lonely day sailed across the milky seas

 C            Em    C     D       C  (G) D
 Ne'er looked back, never feared, never cried.

           G                           C            G
 Don't you hear my call, though you're many years away,

 G                         D
 Don't you hear me calling you

                G      F#/G   Em    D      C    B/G        Am
 Write your letters in the sand for the day I take your hand

         Em           D             G
 In the land that our grandchildren knew.

 In the C~, I add D&G on top:

 |--3
 |--3
 |--0
 |--2
 |--3
 |--X

 Likewise, the D add G is

 |--3   (where you add the G)
 |--3
 |--2
 |--0
 |--X
 |--X





Comments


Popular Queen tabs & chords
Bicycle Race Bass Tabs
Bohemain Rhapsody Tabs
Bring Back That Leroy Brown Tabs
Crazy Little Thing Tabs
Crazy Little Thing 1 Tabs
One Vision 3 Tabs
Calling All Girls Ukulele
Good Company Ukulele
Made In Heaven Ukulele
Tie Your Mother Down Ukulele


Song lyrics



↑ Back to top | Tablatures and chords are parodies/interpretations of the original songs. You may use it for private study, scholarship, research or language learning purposes only
© 2014 AZChords.com Contact us | Privacy policy | DMCA | Add/correct tabs | Request tabs | Top 50 tabs