>
 >
Dice

Dice Guitar Tabs

Quaye Finley - Dice chords, tabs, tablatures, lyrics

Guitar lessons | Add/correct | Request | Top 50 tabs Artists:  A B C D E F G H I J K L M N O P Q R S T U V W X Y Z 0-9

Dice Guitar Tabs – Quaye Finley

CD, Sheet music, Poster

Do you like Dice? Share with your friends now
Tabs
Dice 


This is the real intro riff and the background riff in the chorus:

e|----4-5-------4-5-------4-5------4-5---------------------------|
B|-7---------5---------5--------5--------------------------------|
G|---------------------------------------------------------------|
D|---------------------------------------------------------------|
A|---------------------------------------------------------------|
E|---------------------------------------------------------------|

Here is something i made up my self, its sound very nice:

e|----4-5-4-----4-5-4-----4-5-4----4-5-4-------------------------|
B|-5---------3---------2-----------------------------------------|
G|------------------------------4--------------------------------|
D|---------------------------------------------------------------|
A|---------------------------------------------------------------|
E|---------------------------------------------------------------|


Here is the chords:

[Bm] Infinitesimal [D] nefarious [A] diminu[E]endo.
[Bm] Ingratiating [D] player hating [A] in the [E] end no

[Bm] Nothing can com[D]pare 
To when you [A] roll the dice and you [E] swear that your love's for me
[Bm] Nothing can com[D]pare 
To when you [A] roll the dice and you [E] swear that your love's for me

[Bm] Intoxicating [D] about survial of a [A] beautiful [E] perfume.
[Bm] Heliocentric [D] mellifluous [A] graceful co-ordi[E]nation

[Bm] Nothing can com[D]pare 
To when you [A] roll the dice and you [E] swear that your love's for me
[Bm] Nothing can com[D]pare 
To when you [A] roll the dice and you [E] swear that your love's for me

[Bm] I was [D] crying [A] over [E] you 
[Bm] I was [D] crying [A] I think if [E] you
[Bm] Where your [D] gardens [A] have no [E] walls 
[Bm] running [D] waters and [A] rippling [E] brooks.

[Bm] Nothing can com[D]pare 
To when you [A] roll the dice and you [E] swear that your love's for me
[Bm] Nothing can com[D]pare 
To when you [A] roll the dice and you [E] swear that your love's for me

[Bm] I am re[D]turning [A] to the [E] place,
[Bm] where the [D] wind blows [A] tearing through the [E] heather.
[Bm] Misty [D] mornings [A] and water[E]falls.
[Bm] Breathe in the air if you [D] care, you compare, don't say [A] farewell [E].

[Bm] Nothing can com[D]pare 
To when you [A] roll the dice and you [E] swear that your love's for me
[Bm] Nothing can com[D]pare 
To when you [A] roll the dice and you [E] swear that your love's for me

[Bm] Nothing can com[D]pare 
To when you [A] roll the dice and you [E] swear that your love's for me
[Bm] Nothing can com[D]pare 
To when you [A] roll the dice and you [E] swear that your love's for me
 





Comments


Popular Quaye Finley tabs & chords
Sunday Shining Chords
Your Love Gets Sweeter Chords
Sunday Shining Tabs
Your Love Gets Sweeter Tabs


Song lyrics



↑ Back to top | Tablatures and chords are parodies/interpretations of the original songs. You may use it for private study, scholarship, research or language learning purposes only
© 2014 AZChords.com Contact us | Privacy policy | DMCA | Add/correct tabs | Request tabs | Top 50 tabs