» » »

Quarashi, *** You Puto Tabs (ver.1)

Artists:  A B C D E F G H I J K L M N O P Q R S T U V W X Y Z # 

*** You Puto Tabs (ver.1)

Quarashi Tabs
 Rating:
4/5 (4 votes)
*** You Puto lessons Tabs too difficult? Try these video lessons and learn fast
                *** you Puto
Quarashi

riff 1:
----------------
----------------
---4-----0--6---
------0---------
----------------
----------------

riff 2 :
-----------------------------
-----------------------------
-----------------------------
---3\2--2-3-3---3\2--2-3-3---
---3\2--2-3-3---3\2--2-3-3---
---1\0--0-1-1---1\0--0-1-1---

riff 3:
---------15-13------------
---14-13------------------
---------------12----12---
------------------11------
--------------------------
--------------------------

chorus:
gtr 1: 
-------------
-------------
-------------
---3-3-3-3---
---3-3-3-3---
---1-1-1-1---

gtr 2:
---5-5-5-5-5-5-5-5---4-4-4-4-4-4-4-4---3-3-3-3-3-3-3-3---2-2-2-2-----------

Bridge:
---5-5-5-5-5-5-5-5-4-4-4-4-4-4-4-4-3-3-3-3-3-3-3-3-2-2-2-2-2-2-2-2---
---5-5-5-5-5-5-5-5-4-4-4-4-4-4-4-4-3-3-3-3-3-3-3-3-2-2-2-2-2-2-2-2---
---3-3-3-3-3-3-3-3-2-2-2-2-2-2-2-2-1-1-1-1-1-1-1-1-0-0-0-0-0-0-0-0---
            
Submit corrections

comments powered by Disqus
↑ Back to top | Quarashi Tabs for *** You Puto. Lyrics for acoustic guitar and electric guitar. Tablatures and chords are parodies/interpretations of the original songs. You may use it for private study, scholarship, research or language learning purposes only