» » »

Transparent Parents Tabs (ver.1)

Artists:  A B C D E F G H I J K L M N O P Q R S T U V W X Y Z # 

Transparent Parents Tabs (ver.1)

Quarashi
Rating:
0/5 (0 votes)

Hard to play? Try these video lessons and learn fast.
                
Drop D

Intro :
-----0----------------------------
---2---2--------------------------
------------------------0---------
-----------4--2-4---2-4---4-2-----
------------------------------2---
----------------------------------

Verse/Chorus :
------------------------------------
-------5-------4-------3------2-----
-----6---6---5---5---4---4---3—3---
---6-------5-------4-------3--------
------------------------------------
------------------------------------
            
Hard to play? Try these video lessons and learn fast. | Correct




comments powered by Disqus
↑ Back to top | Tablatures and chords are parodies/interpretations of the original songs. You may use it for private study, scholarship, research or language learning purposes only