» » »

Tarfur Tabs (ver.1)

Artists:  A B C D E F G H I J K L M N O P Q R S T U V W X Y Z # 

Tarfur Tabs (ver.1)

Quarashi
Rating:
0/5 (0 votes)
Tabs too difficult? Try these video lessons and learn fast.
                Quarashi
deathtone@wanadoo/fr

Verse :
gtr 1 :      gtr 2 :
-------------|---------------------
-------------|---------------------
---5-5-x-5---|---------------------
---3-3-x-3---|---------------------
-------------|---6-8-6---------4---
-------------|---------7-6-4h6-----

Chorus :
----------------------------------------------------
----------------------------------------------------
---6-6-6-6---6-6-6-5-5-5----4-4-4-4---4-4-4-3-3-3---
---6-6-6-6---6-6-6-5-5-5----4-4-4-4---4-4-4-3-3-3---
---4-4-4-4---4-4-4-3-3-3----2-2-2-2---2-2-2-1-1-1---
----------------------------------------------------

The rest of the song, only the bass plays:

-------------------------------------|----------------------------------
-----------3-3-3-3-------------------|----------------------------------
-------------------------------------|----------------------------------
---1-1-1-1---------1-1-1-1-0-0-0-0---|---1-1-1--4-4-4--0-0-0--1-1-0-0---
            
Tabs too difficult? Try these video lessons and learn fast.


comments powered by Disqus
↑ Back to top | Tablatures and chords are parodies/interpretations of the original songs. You may use it for private study, scholarship, research or language learning purposes only