» » »

Quarashi, Stick 'em Up Bass tabs (ver.1)

Artists:  A B C D E F G H I J K L M N O P Q R S T U V W X Y Z # 

Stick 'em Up Bass tabs (ver.1)

Quarashi Tabs
Rating:
0/5 (0 votes)
Hard to play? Try these video lessons and learn fast.
                [Intro] (00:32) x2
------------------------|
---3--1-3--1-3--1-3-----|
--------------------0---|
-1--------------------4-| x3

------------------------|
---3--1-3--1-3--1-3-----|
------------------------|
-1----------------------|
[Verse] (00:41)
------------------------|
------------------------|
------------------------|
--11>12121212121212\\\3-| x8
[Verse] (01:09) x8
[Chorus] (01:27) x2
[Verse] (01:45) x8
[Chorus] (02:04) x2
[Verse] (02:22) x4
[Chorus] (02:50) x2
[Bridge] (03:09)
------------------------|
---3--1-3--1-3--1-3-----|
--------------------0---|
-1--------------------4-| x3

--------------------111-|
---3--1-3--1-3--1-3-----|
------------------------|
-1----------------------|
[Outro](Chorus) (03:18) x3
------------------------|
------------------------|
------------------------|
-12\\\\\\\\\\\\\\\\\\\0-
            

comments powered by Disqus
↑ Back to top | Quarashi Bass for Stick 'em Up. Lyrics for acoustic guitar and electric guitar. Tablatures and chords are parodies/interpretations of the original songs. You may use it for private study, scholarship, research or language learning purposes only