» » »

Quarashi, Punk Tabs (ver.1)

Artists:  A B C D E F G H I J K L M N O P Q R S T U V W X Y Z # 

Punk Tabs (ver.1)

Quarashi Tabs
 Rating:
4/5 (4 votes)
Punk lessons Tabs too difficult? Try these video lessons and learn fast
1
                
Drop D

Intro :
----------------------------
----------------------------
----------------------------
---1-1--x-x-x-x-1-x-1-x-1---
---1-1--x-x-x-x-1-x-1-x-1---
---1-1--x-x-x-x-1-x-1-x-1---

Verse :
------------------------
------------------------
------------------------
------------------------
------------------------
---6p3-3-3-3--6--5--4---

Chorus :
-----------------------------
---11-9-8--------------------
----------10-9---9-8-7-6-5---
-----------------------------
-----------------------------
-----------------------------

Bridge :
---------------------------
---------------------------
-----------3-----------3---
---6p3---3h---6p3---3h-----
---6p3--------6p3----------
---6p3--------6p3----------
            
Submit corrections

comments powered by Disqus
↑ Back to top | Quarashi Tabs for Punk. Lyrics for acoustic guitar and electric guitar. 1 Tablatures and chords are parodies/interpretations of the original songs. You may use it for private study, scholarship, research or language learning purposes only