» » »

Volver A Respirar Tabs (ver.1)

Artists:  A B C D E F G H I J K L M N O P Q R S T U V W X Y Z # 

Volver A Respirar Tabs (ver.1)

Qbo
Rating:
5/5 (2 votes)

Hard to play? Try these video lessons and learn fast.
                
Aquí les pongo mi versión de esta rola,
Esta muy fácil, solo tienen que tocarla con el
ritmo de la canción y afinar su guitarra en:

1)      C#
2)      G#
3)      E
4)      B
5)      F#
6)      B

Clave:
h: hamer on
*: palm mute
p: pull off

   [con un auto-wah]
C#|----------------------------------------|
G#|----------------------------------------|
E |-----------------------------0-0--------|
B |-2h3p2-2---2h3p2-2---2h3p2-2-----0------| x2
F#|----------------------------------------|
B |----------------------------------------|

C#|----------------------------------------|
G#|----------------------------------------|
E |----------------------------------------|
B |-2h3p2-2---2h3p2-2---2h3p2-2--5-5-0-----| x2
F#|-2h3p2-2---2h3p2-2---2h3p2-2--5-5-0-----|
B |-2h3p2-2---2h3p2-2---2h3p2-2--5-5-0-----|

C#|-------------------------------------|
G#|-------0--------0--------0-----------|
E |-------0--------0--------0-----------|
B |-2h3p2----2h3p2----2h3p2---5-5-0-----| x2
F#|-2h3p2----2h3p2----2h3p2---5-5-0-----|
B |-2h3p2----2h3p2----2h3p2---5-5-0-----|

C#|---------------|
G#|---------------|
E |-----*-*-*-*---|
B |-0h2-2-0-2-0-2-| x4
F#|-0h2-2-0-2-0-2-|
B |-0h2-2-0-2-0-2-|
    "Escucho”...

   [coro]                            |________x2_________|
C#|---------------------------|---------------------------|
G#|----------------------(x3)-|---------------------------|
E |-9-------------------------|-9-------------------------|
B |-9--0--2-2-0-2-0-2-2-0-2-0-|-9--0--2-0-2-0-2-0-2-0-2-0-|
F#|-7--0--2-2-0-2-0-2-2-0-2-0-|-7--0--2-0-2-0-2-0-2-0-2-0-|
B |----0--2-2-0-2-0-2-2-0-2-0-|----0--2-0-2-0-2-0-2-0-2-0-|
   “Soñar, despierto”...

C#|-----------------------------------|
G#|-----------------------------------|
E |-----------------------------------|
B |-2h3p2-2---2h3p2-2---2h3p2-2-5-5-0-| x1
F#|-----------------------------5-5-0-|
B |-----------------------------5-5-0-|

C#|----------------------------------------|
G#|----------------------------------------|
E |----------------------------------------|
B |-2h3p2-2---2h3p2-2---2h3p2-2--5-5-0-----| x1
F#|-2h3p2-2---2h3p2-2---2h3p2-2--5-5-0-----|
B |-2h3p2-2---2h3p2-2---2h3p2-2--5-5-0-----|

C#|-------------------------------------|
G#|-------0--------0--------0-----------|
E |-------0--------0--------0-----------|
B |-2h3p2----2h3p2----2h3p2---5-5-0-----| x1
F#|-2h3p2----2h3p2----2h3p2---5-5-0-----|
B |-2h3p2----2h3p2----2h3p2---5-5-0-----|

C#|---------------|
G#|---------------|
E |-----*-*-*-*---|
B |-0h2-2-0-2-0-2-| x4
F#|-0h2-2-0-2-0-2-|
B |-0h2-2-0-2-0-2-|
   “Parece irreal”...

   [coro]                            |________x2_________|
C#|---------------------------|---------------------------|
G#|----------------------(x3)-|---------------------------|
E |-9-------------------------|-9-------------------------|
B |-9--0--2-2-0-2-0-2-2-0-2-0-|-9--0--2-0-2-0-2-0-2-0-2-0-|
F#|-7--0--2-2-0-2-0-2-2-0-2-0-|-7--0--2-0-2-0-2-0-2-0-2-0-|
B |----0--2-2-0-2-0-2-2-0-2-0-|----0--2-0-2-0-2-0-2-0-2-0-|
    “Soñar, despierto”...

C#|----------------------------------------|
G#|----------------------------------------|
E |----------------------------------------|
B |-2h3p2-2---2h3p2-2---2h3p2-2--5-5-0-----| x4
F#|-2h3p2-2---2h3p2-2---2h3p2-2--5-5-0-----|
B |-2h3p2-2---2h3p2-2---2h3p2-2--5-5-0-----|

C#|---------------|
G#|---------------|
E |-----*-*-*-*---|
B |-0h2-2-0-2-0-2-| x1
F#|-0h2-2-0-2-0-2-|
B |-0h2-2-0-2-0-2-|

   [coro]                            |________x2_________|
C#|---------------------------|---------------------------|
G#|----------------------(x3)-|---------------------------|
E |-9-------------------------|-9-------------------------|
B |-9--0--2-2-0-2-0-2-2-0-2-0-|-9--0--2-0-2-0-2-0-2-0-2-0-|
F#|-7--0--2-2-0-2-0-2-2-0-2-0-|-7--0--2-0-2-0-2-0-2-0-2-0-|
B |----0--2-2-0-2-0-2-2-0-2-0-|----0--2-0-2-0-2-0-2-0-2-0-|
   “Soñar, despierto”...

C#|----------------------------------------|
G#|----------------------------------------|
E |----------------------------------------|
B |-2h3p2-2---2h3p2-2---2h3p2-2--5-5-0-----| x2
F#|-2h3p2-2---2h3p2-2---2h3p2-2--5-5-0-----|
B |-2h3p2-2---2h3p2-2---2h3p2-2--5-5-0-----|
   “Volver a respirar”

C#|-------------------------------------|
G#|-------0--------0--------0-----------|
E |-------0--------0--------0-----------|
B |-2h3p2----2h3p2----2h3p2---5-5-0-----| x2
F#|-2h3p2----2h3p2----2h3p2---5-5-0-----|
B |-2h3p2----2h3p2----2h3p2---5-5-0-----|
   “Volver a respirar”
            
Hard to play? Try these video lessons and learn fast. | Correct




comments powered by Disqus
↑ Back to top | Tablatures and chords are parodies/interpretations of the original songs. You may use it for private study, scholarship, research or language learning purposes only