» » »

Qbo, Rien Tabs (ver.1)

Artists:  A B C D E F G H I J K L M N O P Q R S T U V W X Y Z # 

Rien Tabs (ver.1)

Qbo Tabs
 Rating:
4/5 (4 votes)
Rien lessons Tabs too difficult? Try these video lessons and learn fast
                Music by qbo
Arranged by qbo

Gtr I (B E A D F# B) - 'Untitled'

 4/4
  Gtr I
  E  E  +H.        +W           E  E  +H     E E   +Q   E E +H
|----------------|------------|------------------|-----------------|
|----------------|------------|------------------|-----------------|
|----------------|------------|----------------2-|-(2)----3-(3)----|
|----------------|------------|--------------0---|------0----------|
|-5-(5)-(5)------|-(5)--------|-5-(5)-(5)--------|-----------------|
|-1--3--(3)------|-(3)--------|-1--3--(3)--------|-----------------|


  E  E  +H     E E   +Q.   E +H       E  E  +H     E E   +Q   E E +H
|------------------|----------------|------------------|-----------------|
|------------------|----------------|------------------|-----------------|
|----------------2-|-(2)------------|----------------2-|-(2)----3-(3)----|
|--------------0---|-------0-(0)----|--------------0---|------0----------|
|-5-(5)-(5)--------|----------------|-5-(5)-(5)--------|-----------------|
|-1--3--(3)--------|----------------|-1--3--(3)--------|-----------------|


  S S S S S S S S S S E Q    S S S S S S S S S S E Q
|--------------------------|--------------------------|
|--------------------------|--------------------------|
|--------------------------|--------------------------|
|-5-----5-----5-----5------|-5-----5-----5-----5------|
|-5-----5-----5-----5------|-5-----5-----5-----5------|
|-3-----3-----3-----3------|-3-----3-----3-----3------|


            PM      PM      PM      PM----|
    S S +S  S S +S  S S +S  S S +S  S S S S
||------------------------------------------|
||o-----------------------------------------|
||------------------------------------------|
||------------------------------------------|
||o-5-5-(5)-5-5-(5)-5-5-(5)-5-5-(5)-5-------|
||--1-3-(3)-1-3-(3)-1-3-(3)-1-3-(3)-1-3-3-3-|


          PM      PM      PM      PM----|
  S S +S  S S +S  S S +S  S S +S  S S S S
|-------------------------------------------||
|------------------------------------------o||
|-------------------------------------------||
|-------------------------------------------||
|-5-5-(5)-5-5-(5)-5-5-(5)-5-5-(5)-5--------o||
|-1-3-(3)-1-3-(3)-1-3-(3)-1-3-(3)-1-3-3-3---||


                                ~                                  ~
  S S +S  S S +S  S S +S  S E   Q    S S +S  S S +S  S S +S  S E   Q
|----------------------------------|----------------------------------|
|----------------------------------|----------------------------------|
|----------------------------------|----------------------------------|
|----------------------------------|----------------------------------|
|----------------------------------|----------------------------------|
|-1-3-(3)-1-3-(3)-1-3-(3)-1-3b4-3--|-1-3-(3)-1-3-(3)-1-3-(3)-1-3b4-3--|


                                ~                                  ~
  S S +S  S S +S  S S +S  S E   Q    S S +S  S S +S  S S +S  S E   Q
|----------------------------------|------------------------------------|
|----------------------------------|------------------------------------|
|----------------------------------|------------------------------------|
|----------------------------------|------------------------------------|
|----------------------------------|------------------------------------|
|-1-3-(3)-1-3-(3)-1-3-(3)-1-3b4-3--|-1-3-(3)-1-3-(3)-1-3-(3)-1-3b4-3----|


    S S +S  S +S  S E +H        S S +S  S +S  S E +H
||----------------------------|---------------------------|
||o-----------------6-(6)-----|-----------------3-(3)-----|
||--3-0-(0)-0-(0)-0-----------|-3-0-(0)-0-(0)-0-----------|
||----------------------------|---------------------------|
||o---------------------------|---------------------------|
||----------------------------|---------------------------|


  S S +S  S +S  S E +H        S S +S  S +S  S E +H      3x
|---------------------------|---------------------------||
|-----------------1-(1)-----|-----------------1-(1)----o||
|-3-0-(0)-0-(0)-0-----------|-3-0-(0)-0-(0)-0-----------||
|---------------------------|---------------------------||
|---------------------------|--------------------------o||
|---------------------------|---------------------------||


  S S S S S S S S S S E Q    S S S S S S S S S S S S E E
|--------------------------|------------------------------|
|--------------------------|------------------------------|
|--------------------------|------------------------------|
|-5-----5-----5-----5------|-5-----5-----5-----5-------3--|
|-5-----5-----5-----5------|-5-----5-----5-----5-------3--|
|-3-----3-----3-----3------|-3-----3-----3-----3-------1--|


  W          W          Q  E E +H       Q  E E +H
|----------|----------|------6-(6)----|------6-(6)----|
|----------|----------|------6-(6)----|------4-(4)----|
|----------|----------|-8--8----------|-5--3----------|
|-5--------|-8--------|-8--8----------|-5--5----------|
|-5--------|-8--------|-6--6----------|-3--3----------|
|-3--------|-6--------|---------------|---------------|


  W          W          Q  E E +H       Q  E E +H
|----------|----------|------6-(6)----|------6-(6)----|
|----------|----------|------4-(4)----|------6-(6)----|
|----------|----------|-5--3----------|-8--8----------|
|-5--------|-8--------|-5--5----------|-8--8----------|
|-5--------|-8--------|-3--3----------|-6--6----------|
|-3--------|-6--------|---------------|---------------|


            PM      PM      PM      PM----|
    S S +S  S S +S  S S +S  S S +S  S S S S
||------------------------------------------|
||o-----------------------------------------|
||------------------------------------------|
||------------------------------------------|
||o-5-5-(5)-5-5-(5)-5-5-(5)-5-5-(5)-5-------|
||--1-3-(3)-1-3-(3)-1-3-(3)-1-3-(3)-1-3-3-3-|


          PM      PM      PM      PM----|
  S S +S  S S +S  S S +S  S S +S  S S S S
|-------------------------------------------||
|------------------------------------------o||
|-------------------------------------------||
|-------------------------------------------||
|-5-5-(5)-5-5-(5)-5-5-(5)-5-5-(5)-5--------o||
|-1-3-(3)-1-3-(3)-1-3-(3)-1-3-(3)-1-3-3-3---||


    S S +S  S +S  S E +H        S S +S  S +S  S E +H
||----------------------------|---------------------------|
||o-----------------6-(6)-----|-----------------3-(3)-----|
||--3-0-(0)-0-(0)-0-----------|-3-0-(0)-0-(0)-0-----------|
||----------------------------|---------------------------|
||o---------------------------|---------------------------|
||----------------------------|---------------------------|


  S S +S  S +S  S E +H        S S +S  S +S  S E +H      3x
|---------------------------|---------------------------||
|-----------------1-(1)-----|-----------------1-(1)----o||
|-3-0-(0)-0-(0)-0-----------|-3-0-(0)-0-(0)-0-----------||
|---------------------------|---------------------------||
|---------------------------|--------------------------o||
|---------------------------|---------------------------||


  W          W          Q  E E +H       Q  E E +H
|----------|----------|------6-(6)----|------6-(6)----|
|----------|----------|------6-(6)----|------4-(4)----|
|----------|----------|-8--8----------|-5--3----------|
|-5--------|-8--------|-8--8----------|-5--5----------|
|-5--------|-8--------|-6--6----------|-3--3----------|
|-3--------|-6--------|---------------|---------------|


  W          W          Q  E E +H       Q  E E +H
|----------|----------|------6-(6)----|------6-(6)----|
|----------|----------|------4-(4)----|------6-(6)----|
|----------|----------|-5--3----------|-8--8----------|
|-5--------|-8--------|-5--5----------|-8--8----------|
|-5--------|-8--------|-3--3----------|-6--6----------|
|-3--------|-6--------|---------------|---------------|


    S S S S S S S S S S E Q   3x S S S S S S S S S S S S E E
||----------------------------||-----------------------------|
||o--------------------------o||-----------------------------|
||----------------------------||-----------------------------|
||--5-----5-----5-----5-------||-5-----5-----5-----5-------3-|
||o-5-----5-----5-----5------o||-5-----5-----5-----5-------3-|
||--3-----3-----3-----3-------||-3-----3-----3-----3-------1-|


  W          +H     +E  E  Q      W          H    E E  Q   3x
|----------|------------------||-----------|---------------||
|----------|------------------||o----------|--------------o||
|----------|--------------12--||-----------|----------12---||
|-5--------|-(5)----(5)---11--||-----------|----------11---||
|-5--------|-(5)----(5)-------||o----------|--------------o||
|-3--------|-(3)----(3)-0-----||-----------|--------0------||


    E  E E E E E  E E   E  E E E E E  Q
||--------------------|------------------|
||o-------------------|------------------|
||--------------------|--------------12--|
||--3-/5---5---3-/5-3-|-3-/5---5-----11--|
||o-3-/5---5---3-/5-3-|-3-/5---5---------|
||--1-/3---3---1-/3-1-|-1-/3---3---0-----|


  E  E E E E E  E E   E  E E E E E  Q
|-------------------|------------------||
|-------------------|-----------------o||
|-------------------|--------------12--||
|-3-/5---5---3-/5-3-|-3-/5---5-----11--||
|-3-/5---5---3-/5-3-|-3-/5---5--------o||
|-1-/3---3---1-/3-1-|-1-/3---3---0-----||


Duration Legend
---------------
W - whole; H - half; Q - quarter; E - 8th; S - 16th; T - 32nd; X - 64th; a - acciaccatura
+ - note tied to previous; . - note dotted; .. - note double dotted
Uncapitalized letters represent notes that are staccato (1/2 duration)
Irregular groupings are notated above the duration line
Duration letters will always appear directly above the note/fret number it represents the
duration for.  Duration letters with no fret number below them represent rests.  Multi-
bar rests are notated in the form Wxn, where n is the number of bars to rest for.  Low
melody durations appear below the staff

Tablature Legend
----------------
 h   - hammer-on
 p   - pull-off
 b   - bend
 pb  - pre-bend
 r   - bend release (if no number after the r, then release immediately)
 /\  - slide into or out of (from/to "nowhere")
 s   - legato slide
 S   - shift slide
  - natural harmonic
[n]  - artificial harmonic
n(n) - tapped harmonic
 ~   - vibrato
 tr  - trill
 T   - tap
 TP  - trem. picking
 PM  - palm muting
\n/  - tremolo bar dip; n = amount to dip
 \n  - tremolo bar down
 n/  - tremolo bar up
/n\  - tremolo bar inverted dip
 =   - hold bend; also acts as connecting device for hammers/pulls
 <>  - volume swell (louder/softer)
 x   - on rhythm slash represents muted slash
 o   - on rhythm slash represents single note slash

Misc Legend
-----------
 |  - bar
||  - double bar
||o - repeat start
o|| - repeat end
*|  - double bar (ending)
 :  - bar (freetime)
 $  - Segno
 &  - Coda
Tempo markers -  = BPM(8/16=s8/s16), where s8 = swing 8ths, s16 = swing 16ths
            
Submit corrections

comments powered by Disqus
↑ Back to top | Qbo Tabs for Rien. Lyrics for acoustic guitar and electric guitar. Tablatures and chords are parodies/interpretations of the original songs. You may use it for private study, scholarship, research or language learning purposes only