» » »

Qbo, One Last Time Tabs (ver.1)

Artists:  A B C D E F G H I J K L M N O P Q R S T U V W X Y Z # 

One Last Time Tabs (ver.1)

Qbo Tabs
 Rating:
4/5 (4 votes)
One Last Time lessons Tabs too difficult? Try these video lessons and learn fast
1
                One Last time
Drop to D tuning (D,A,D,G,B,E)

Intro No.1
e-------------------------------|
B--------------------5----------|
G-----5----5----5-----5---------| (Repita 2)
D----5-5--5-5--5-5--------------|
A---3----3----3----3------------|
D-------------------------------|

Intro No. 2
e---------------------------------------------|
B---------------------------------------------|
G---------------------------------------------| (Repite esto pero despues hazlo
D-000--2-0-3--000--2-0-3--333333---5---3p2p0--|  PALM MUTED donde ves los puntos
A-000---------000---------333333---5---3p2p0--|  Al comienzo)
D-000---------000---------333333---5---3p2p0--|
  ...    .    ...    .

Verso (0:31)
e----------------|
B----------------|
G----------------|
D-00----00-------|
A-00----00-------|
D-00----00-------|

Verso (0:40)
e--------------------------------------|
B--------------------------------------|
G----555------555------555------555----|
D-00-xxx--00--xxx--33--xxx--55--xxx----| X2
A-00-333--00--333--33--333--55--333----|
D-00------00-------33-------55---------|

Verso (0:50)
e-------------------------------|
B-------------------------------|
G-------------------------------| x2
D-00000--00000-0h3333--3h55555--|
A-00000--00000-0h3333--3h55555--|
D-00000--00000-0h3333--3h55555--|

Coro
e----------------------------------------|
B----------------------------------------|(Palm mute las x aqui)
G----------------------------5xxx5xx5----|
D-000000--8888888---22-22-22-5xxx5xx5----| x2
A-000000--8888888---22-22-22-3xxx3xx3----|
D-000000--8888888---22-22-22-------------|

(Repite verso Intro No.2)
(Respite ambos versos)

Coro Alternativo (2:17)
e-----------------------------------------------|
B-----10-10-----------10-10-----------10-10-----|
G----------10-10-----------10-10----------10-10-|
D-000-------------888-------------333-----------|
A-000-------------888-------------333-----------|
D-000-------------888-------------333-----------|

El puente (2:36) Sin distorcion y despues con distorcion
e-------------------------------|
B-------------------------------|
G-------------------------------| x2
D-00000--00000-0h3333--3h55555--|
A-00000--00000-0h3333--3h55555--|
D-00000--00000-0h3333--3h55555--|
Esta rola se la dedico con mucho carino a Maritza, mi hermosa novia. Salu2!!!
Tambien otra cosa, POR FAVOR si van a copiar este tab en otro lado, POR FAVOR denme 
pues hacer tabs es dificil. Gracias!!!
            
Submit corrections

comments powered by Disqus
↑ Back to top | Qbo Tabs for One Last Time. Lyrics for acoustic guitar and electric guitar. 1 Tablatures and chords are parodies/interpretations of the original songs. You may use it for private study, scholarship, research or language learning purposes only