» » »

Qbo, No Mas Dropped C Tabs (ver.1)

Artists:  A B C D E F G H I J K L M N O P Q R S T U V W X Y Z # 

No Mas Dropped C Tabs (ver.1)

Qbo Tabs
4/5 (4 votes)
No Mas Dropped C lessons Tabs too difficult? Try these video lessons and learn fast
                and i also think this is the most accurate tab if not see it for
so enjoy it

/ = slide
p = pull off
h = hammer
b = bend

starts with bass

intro (with distortion):

d ---------------------------------------------------------
a ---------------------------------------------------------
f --------------------------9p7h9--------------------------
c 0000-00000-00-0000-00000---------0000-00000-00-0000-00000 x2
g 0000-00000-00-0000-00000---------0000-00000-00-0000-00000
C 0000-00000-00-0000-00000---------0000-00000-00-0000-00000

verse (try using a delay):

d --12--11-----------------
a ---------12---9---99h10--
f ------------------------- x4
c -------------------------
g -------------------------
C -------------------------

chorus ( with distortion ) :

d ----------------0---0---0---0-
a ----------------0---0---0---0-
f ------------------------------
c 00h88/33/10--0---8---3---10--- x2
g 00h88/33/10--0---8---3---10---
C 00h88/33/10--0---8---3---10---

little solo (with distortion):

d -----------------------------
a -12(let it ring)12p11--------
f ---------------------12p10h11
c -----------------------------
g -----------------------------
C -----------------------------
then they play the verse again x2
and play a bridge:


d -----------------------------------------------------
a -----------------------------------------------------
f -----------------------------------------------------
c 0000-00000-00-0000-0-0-0h3b--0000-00000-00-0000-00000
g 0000-00000-00-0000-0-0-0h3b--0000-00000-00-0000-00000
C 0000-00000-00-0000-0-0-0h3b--0000-00000-00-0000-00000

then chorus again

then intro again but x1

then the bass and drums play

then the guitars does this

d -----
a -----
f -----
c -----
g -----
C 7/9/1

then plays chorus again
 it finishes in this

d ---0
a ---0
f ----
c 00--
g 00--
C 00--

so the song goes like this:

intro bass
intro  x2
verse  x4
chorus   x2
solo   x1
verse  x2
bridge x1
chorus  x2
intro  x2
only bass and drums
chorus till the end of song
Submit corrections

comments powered by Disqus
↑ Back to top | Qbo Tabs for No Mas Dropped C. Lyrics for acoustic guitar and electric guitar. Tablatures and chords are parodies/interpretations of the original songs. You may use it for private study, scholarship, research or language learning purposes only