» » »

Magico Tabs (ver.1)

Artists:  A B C D E F G H I J K L M N O P Q R S T U V W X Y Z # 

Magico Tabs (ver.1)

Qbo
Rating:
0/5 (0 votes)

Tabs too difficult? Try these video lessons and learn fast.
                Artista: QBO
Cancion: Magico
Afina tu guitarra asi:(de 6 cuerda a 1era) B,E,A,D,F#,B

INTRO
B------------------------------------------------------|
F#-----------------------------------------------------|
D-------------------------12------12------12-----------|
A-------------------------12------12------12-----------| (REPITE ESTO HASTA EL VERSO)
E----12/------------------11------11------11-----------|
B----12/--------------00-------000-----000-------------|

VERSO1
B---------------------------------------------------------|
F#--------------------------------------------------------|
D------2h3----3p2----2h3----5p3---------------------------|(ESCUCHA LA CANCION PARA EL RITMO)
A----0-------------0--------------------------------------|
E---------------------------------------------------------|
B---------------------------------------------------------|

VERSO2 (HACERLO PALM MUTED)
B--------------------------------------------------------|
F#-------------------------------------------------------|
D----------XX-77-77-7777777/999999-----------------------|
A----------XX-77-77-7777777/999999-----------------------|
E----------XX-55-55-5555555/777777-----------------------|
B--------------------------------------------------------|
           .................
CORO
B---------------------------------------------------------|
F#--------------------------------------------------------|
D---------------------------------------------------------|
A-----777777---3333333-----1010101010---------------------|
E-----777777---3333333-----1010101010----12121212-141414--|
B-----555555---1111111------8-8-8-8-8----10101010-121212--|

B---------------------------------------------------------|
F#--------------------------------------------------------|
D---------------------------------------------------------|
A-----777777---3333333------1010101010---8888888----------|
E-----777777---3333333------1010101010---8888888----------|
B-----555555---1111111-------8-8-8-8-8---6666666----------|

EL PUENTE ES LO MISMO QUE EL VERSO1, SOLO QUE ES MAS LENTO Y
CON MUCHO DELAYED EN LAS PRIMERAS CUERDAS PARA QUE SE OIGA ASI.
            
Tabs too difficult? Try these video lessons and learn fast.


comments powered by Disqus
↑ Back to top | Tablatures and chords are parodies/interpretations of the original songs. You may use it for private study, scholarship, research or language learning purposes only