>
 >
 >
Lo Siento

Lo Siento Guitar Tabs

Qbo - Lo Siento chords, tabs, tablatures, lyrics

Guitar lessons | Add/correct | Request | Top 50 tabs Artists:  A B C D E F G H I J K L M N O P Q R S T U V W X Y Z 0-9

Lo Siento Guitar Tabs – Qbo

CD, Sheet music, Poster

Do you like Lo Siento? Share with your friends now
Tabs
Difficulty: Novice
Tune: Drop D



Tab Legend:
h = hammer on
/// = Tremolo picking
(#)/ = slide up neck
(#)\ = slide down neck
PM = Palm Mute
x = mute string
~~~~ = Hold note




[Intro] X2
e|-----------------------------------------------------------|
b|------9-9-9-9/11--6-6-6/9----------6-6-6-6/9--4-4-4--------|
g|-----------------------------------------------------------|
d|-0--0-------------------------0--0-------------------------|
a|-0--0-------------------------0--0-------------------------|
D|-0--0-------------------------0--0-------------------------|


e|-------------4---5---4-------------------4---5---4---------|
b|-----------5---5---5---5---------------5---5---5---5-------|
g|-----------------------------------------------------------|
d|-0--2--4---------------------0--2--4-----------------------|
a|-0--2--4---------------------0--2--4-----------------------|
D|-0--2--4---------------------0--2--4-----------------------|




[1st Verse]
e|----------------------|
b|----------------------|
g|----------------------|
d|-4-----7-----0--------|   X2(palm mute)
a|-4-X16-7-X16-0-X32----|
D|-4-----7-----0--------|




[Pre-chorus]
e|-----------------------------------------------------------|
b|-----------------------------------------------------------|
g|-----------------------------------------------------------|
d|-7~~~~~~~~~~~~~~~~~-6~~~~~~~~~~~~~~~~~~~~~~~~~-------------|
a|-7~~~~~~~~~~~~~~~~~-7~~~~~~~~~~~~~~~~~~~~~~~~~-------------|
D|-7~~~~~~~~~~~~~~~~~-6~~~~~~~~~~~~~~~~~~~~~~~~~-------------|

e|--------------------------------------------------------------|
b|--------------------------------------------------------------|
g|--------------------------------------------------------------|
d|-0~~~~~~~~~~~~~~~~~~~~~~~~~~~--0-0---0--0-0-0--0-0-0--0-0-0---|
a|-0~~~~~~~~~~~~~~~~~~~~~~~~~~~--0-0---0--0-0-0--0-0-0--0-0-0---|
D|-0-~~~~~~~~~~~~~~~~~~~~~~~~~~--0-0---0--0-0-0--0-0-0--0-0-0---|

e|-----------------------------------------------------------|
b|-----------------------------------------------------------|
g|-----------------------------------------------------------|
d|-7~~~~~~~~~~~~~~~~~-6~~~~~~~~~~~~~~~~~~~~~~~~~-------------|
a|-7~~~~~~~~~~~~~~~~~-7~~~~~~~~~~~~~~~~~~~~~~~~~-------------|
D|-7~~~~~~~~~~~~~~~~~-6~~~~~~~~~~~~~~~~~~~~~~~~~-------------|

e|-----------------------------------------------------------|
b|-----------------------------------------------------------|
g|-----------------------------------------------------------|
d|-0~~~~~~~~~~~~~~~~~~~~~~~~~~~--0-0---0--0-0-0--------------|
a|-0~~~~~~~~~~~~~~~~~~~~~~~~~~~--0-0---0--0-0-0--------------|
D|-0-~~~~~~~~~~~~~~~~~~~~~~~~~~--0-0---0--0-0-0--------------|




[Chorus] X2
e|-----------------------------------------------------------|
b|-----------------------------------------------------------|
g|----------9/11/9--9--------------------9/11/9--9-----------|
d|-0-0-0-0--x/x-/x--x-----------0-0-0-0--x/x-/x--x-----------|
a|-0-0-0-0--7/9-/7--7-----------0-0-0-0--7/9-/7--7-----------|
D|-0-0-0-0----------------------0-0-0-0----------------------|

e|-----------------------------------------------------------|
b|-----------------------------------------------------------|
g|-----------------------------------------------------------|
d|-2--4-4-4-4-4-4--7-7-7--2-2-2------------------------------|
a|-2--4-4-4-4-4-4--7-7-7--2-2-2------------------------------|
D|-2--4-4-4-4-4-4--7-7-7--2-2-2------------------------------|




(post Chorus)                        
e|-----4---4-----4-----4---4---5/-------------------------|
b|-5-5---5---5-5---5-5---5---5-5/-------------------------|
g|--------------------------------------------------------|
d|--------------------------------------------------------|
a|--------------------------------------------------------|
D|--------------------------------------------------------|




[2nd Verse]
e|----------------------|
b|----------------------|
g|----------------------|
d|-4-----7-----0--------|   X2(palm mute)
a|-4-X16-7-X16-0-X32----|
D|-4-----7-----0--------|




[Pre-Chorus)
e|-----------------------------------------------------------|
b|-----------------------------------------------------------|
g|-----------------------------------------------------------|
d|-7~~~~~~~~~~~~~~~~~-6~~~~~~~~~~~~~~~~~~~~~~~~~-------------|
a|-7~~~~~~~~~~~~~~~~~-7~~~~~~~~~~~~~~~~~~~~~~~~~-------------|
D|-7~~~~~~~~~~~~~~~~~-6~~~~~~~~~~~~~~~~~~~~~~~~~-------------|

e|-----------------------------------------------------------|
b|-----------------------------------------------------------|
g|-----------------------------------------------------------|
d|-0~~~~~~~~~~~~~~~~~~~~~~~~~~~--0-0---0--0-0-0--------------|
a|-0~~~~~~~~~~~~~~~~~~~~~~~~~~~--0-0---0--0-0-0--------------|
D|-0-~~~~~~~~~~~~~~~~~~~~~~~~~~--0-0---0--0-0-0--------------|

e|-----------------------------------------------------------|
b|-----------------------------------------------------------|
g|-----------------------------------------------------------|
d|-7~~~~~~~~~~~~~~~~~-6~~~~~~~~~~~~~~~~~~~~~~~~~-------------|
a|-7~~~~~~~~~~~~~~~~~-7~~~~~~~~~~~~~~~~~~~~~~~~~-------------|
D|-7~~~~~~~~~~~~~~~~~-6~~~~~~~~~~~~~~~~~~~~~~~~~-------------|

e|--------------------------------------------------------------|
b|--------------------------------------------------------------|
g|--------------------------------------------------------------|
d|-0~~~~~~~~~~~~~~~~~~~~~~~~~~~--0-0---0--0-0-0--0-0-0--0-0-0---|
a|-0~~~~~~~~~~~~~~~~~~~~~~~~~~~--0-0---0--0-0-0--0-0-0--0-0-0---|
D|-0-~~~~~~~~~~~~~~~~~~~~~~~~~~--0-0---0--0-0-0--0-0-0--0-0-0---|




[Chorus] X2
e|-----------------------------------------------------------|
b|-----------------------------------------------------------|
g|----------9/11/9--9--------------------9/11/9--9-----------|
d|-0-0-0-0--x/x-/x--x-----------0-0-0-0--x/x-/x--x-----------|
a|-0-0-0-0--7/9-/7--7-----------0-0-0-0--7/9-/7--7-----------|
D|-0-0-0-0----------------------0-0-0-0----------------------|

e|-----------------------------------------------------------|
b|-----------------------------------------------------------|
g|-----------------------------------------------------------|
d|-2--4-4-4-4-4-4--7-7-7--2-2-2------------------------------|
a|-2--4-4-4-4-4-4--7-7-7--2-2-2------------------------------|
D|-2--4-4-4-4-4-4--7-7-7--2-2-2------------------------------|



[Post Chorus]
|--------------------------|
|--------------------------|
|--------------------------|
|-4------------------------|
|-4------------------------|
|-4------------------------|





[Bridge]X2                                  
e|-4-4-4-4-4-4-0-0-0-0-0-0-5-5-5-5---------------------------|
b|-5-5-5-5-5-5-5-5-5-5-5-5-5-5-5-5---------------------------|
g|-----------------------------------------------------------|  x3
d|-----------------------------------------------------------|
a|-----------------------------------------------------------|
D|-----------------------------------------------------------|

e|-4-4-4-0-0-0-0-0--0---0--0---0---0-------------------------|
b|-5-5-5-5-5-5-5-5--5/9-9--10--8/9-9-------------------------|
g|-----------------------------------------------------------|
d|-----------------------------------------------------------|
a|-----------------------------------------------------------|
D|-----------------------------------------------------------|




[Chorus] X2
e|-----------------------------------------------------------|
b|-----------------------------------------------------------|
g|----------9/11/9--9--------------------9/11/9--9-----------|
d|-0-0-0-0--x/x-/x--x-----------0-0-0-0--x/x-/x--x-----------|
a|-0-0-0-0--7/9-/7--7-----------0-0-0-0--7/9-/7--7-----------|
D|-0-0-0-0----------------------0-0-0-0----------------------|

e|-----------------------------------------------------------|
b|-----------------------------------------------------------|
g|-----------------------------------------------------------|
d|-2--4-4-4-4-4-4--7-7-7--2-2-2------------------------------|
a|-2--4-4-4-4-4-4--7-7-7--2-2-2------------------------------|
D|-2--4-4-4-4-4-4--7-7-7--2-2-2------------------------------|




[Outro] X2
Palm mute opens  
e|-----------------------------------------------------------|
b|-------5------5------5----6--------------------------------|
g|-------4------4------4----4--------------------------------|
d|-----------------------------------------------------------| X2
a|-0-0-0----0-0----0-0----0----------------------------------|
D|-0-0-0----0-0----0-0----0----------------------------------|
                              
e|-----------------------------------------------------------|
b|-5-5-5-5--5-5-5--5-5-5--5-6--------------------------------|
g|-4-4-4-4--4-4-4--4-4-4--4-4--------------------------------|
d|-----------------------------------------------------------| X2
a|-----------------------------------------------------------|
D|-----------------------------------------------------------|





Comments


Popular Qbo tabs & chords
Nada Que Pensar Bass Tabs
Nada Que Pensar 1 Bass Tabs
Al Fin No Tengo Mas Cadenas Tabs
Anclas Tabs
Desvanecer 1 Tabs
Hasta El Final Tabs
No Mas 3 Tabs
No Mas 4 Tabs
No Mas 5 Tabs
Solo Por Ti Tabs


Song lyrics



↑ Back to top | Tablatures and chords are parodies/interpretations of the original songs. You may use it for private study, scholarship, research or language learning purposes only
© 2014 AZChords.com Contact us | Privacy policy | DMCA | Add/correct tabs | Request tabs | Top 50 tabs