>
 >
 >
Hasta El Final

Hasta El Final Guitar Tabs

Qbo - Hasta El Final chords, tabs, tablatures, lyrics

Guitar lessons | Add/correct | Request | Top 50 tabs Artists:  A B C D E F G H I J K L M N O P Q R S T U V W X Y Z 0-9

Hasta El Final Guitar Tabs – Qbo

CD, Sheet music, Poster

Do you like Hasta El Final? Share with your friends now
Tabs
Para tokar esta rola necesitan afinar su guitarra en C y va masomenos asi:

Intro(Dist)
D-------------15-----------15------------12-13-12-|
A------15-13-------15-13-------15-13-13-----------|
F-12----------------------------------------------|
C-------------------------------------------------|
G-------------------------------------------------|
C-------------------------------------------------|

x2
D---3333-----3333-----3333-----3333-----------------------------------|
A---------------------------------------------------------------------|
F-4/55554-44/55554-44/55554-44/33332--12121212\77/999-12121212\77/999-|
C-x-xxxxx-xx-xxxxx-xx-xxxxx-xx-xxxxx---x-x-x-x-xx-xxx--x-x-x-x-xx-xxx-|
G-2/33332-22/33332-22/33332-22/33332--10101010\55/777-10101010\55/777-|
C---------------------------------------------------------------------|

Verso(clean)
D--------------------------------------------|
A-8----------<5>))-<5>))-<5>))-----8---------|
F----7-5(5)-----<5>))-<5>))-<5>)))----4-5(5)-|
C--------------------------------------------|
G--------------------------------------------|
C--------------------------------------------|

D--------------------------------------------|
A-8----------8----------8----------8---------|
F----7-5(5)-----7-5(5)-----7-5(5)-----4-5(5)-|
C--------------------------------------------|
G--------------------------------------------|
C--------------------------------------------|

Precoro   x4
D-----------------------------------------|
A-----------------------------------------|
F-----------------------------------------|
C-1010--9-9------1010--9-9------1010--9-9-|
G-1010-1010-1010-1010-1010-1010-1010-1010-|
C-----------------------------------------|
pm . .  . .  . .  . .  . .  . .  . .  . .

Coro   x2
D---3333-----3333-----3333-----3333----3333-----3333--------------|
A-----------------------------------------------------------------|
F-4/55554-44/55554-44/55554-44/33332-4/55554-44/55554-12-12-12-12-|
C-x-xxxxx-xx-xxxxx-xx-xxxxx-xx-xxxxx-x-xxxxx-xx-xxxxx--x--x--x--x-|
G-2/33332-22/33332-22/33332-22/33332-2/33332-22/33332-10-10-10-10-|
C-----------------------------------------------------------------|

x1
D---3333-----3333-----3333-----3333-----------------------------------|
A---------------------------------------------------------------------|
F-4/55554-44/55554-44/55554-44/33332--12121212\77/999-12121212\77/999-|
C-x-xxxxx-xx-xxxxx-xx-xxxxx-xx-xxxxx---x-x-x-x-xx-xxx--x-x-x-x-xx-xxx-|
G-2/33332-22/33332-22/33332-22/33332--10101010\55/777-10101010\55/777-|
C---------------------------------------------------------------------|

Verso(clean)
D--------------------------------------------|
A-8----------<5>))-<5>))-<5>))-----8---------|
F----7-5(5)-----<5>))-<5>))-<5>)------4-5(5)-|
C------------------------------<5>)----------|
G--------------------------------------------|
C--------------------------------------------|

D--------------------------------------------|
A-8----------8----------8----------8---------|
F----7-5(5)-----7-5(5)-----7-5(5)-----4-5(5)-|
C--------------------------------------------|
G--------------------------------------------|
C--------------------------------------------|

Precoro   x4
D-----------------------------------------|
A-----------------------------------------|
F-----------------------------------------|
C-1010--9-9------1010--9-9------1010--9-9-|
G-1010-1010-1010-1010-1010-1010-1010-1010-|
C-----------------------------------------|
pm . .  . .  . .  . .  . .  . .  . .  . .

Coro   x2
D---3333-----3333-----3333-----3333----3333-----3333--------------|
A-----------------------------------------------------------------|
F-4/55554-44/55554-44/55554-44/33332-4/55554-44/55554-12-12-12-12-|
C-x-xxxxx-xx-xxxxx-xx-xxxxx-xx-xxxxx-x-xxxxx-xx-xxxxx--x--x--x--x-|
G-2/33332-22/33332-22/33332-22/33332-2/33332-22/33332-10-10-10-10-|
C-----------------------------------------------------------------|

Interlude
D-----------------------------------|
A-----------------------------------|
F-7--7~7---7--7~7---7--7~7---7--7~7-|
C-7--7~7---7--7~7---7--7~7---7--7~7-|
G-5--5~5---5--5~5---5--5~5---5--5~5-|
C-----------------------------------|

x4
D-----------------------------------------|
A-----------------------------------------|
F-----------------------------------------|
C-1010--9-9------1010--9-9------1010--9-9-|
G-1010-1010-1010-1010-1010-1010-1010-1010-|
C-----------------------------------------|
pm . .  . .  . .  . .  . .  . .  . .  . .

x4
D-----------------------------------------|
A-----------------------------------------|
F-----------------------------------------|
C-1010--9-9------1010--9-9------1010--9-9-|
G-1010-1010-1010-1010-1010-1010-1010-1010-|
C-----------------------------------------|
pm . .  . .  . .  . .  . .  . .  . .  . .

Gtr2
D----------------------------------------- ------|
A-<12>------------------------------------ -<12>-|
F---------------<12>---------------<7>---- ------|
C-------------------------------------<7>- ------|
G----------------------------------------- ------|
C----------------------------------------- ------|

Coro   x2
D---3333-----3333-----3333-----3333----3333-----3333--------------|
A-----------------------------------------------------------------|
F-4/55554-44/55554-44/55554-44/33332-4/55554-44/55554-12-12-12-12-|
C-x-xxxxx-xx-xxxxx-xx-xxxxx-xx-xxxxx-x-xxxxx-xx-xxxxx--x--x--x--x-|
G-2/33332-22/33332-22/33332-22/33332-2/33332-22/33332-10-10-10-10-|
C-----------------------------------------------------------------|

Final
D--------------------------------------------------------------|
A--------------------------------------------------------------|
F-999999-7777-1212--999999-7777-1212--999999-7777--12-12-12-12-|
C-xxxxxx-xxxx--x-x--xxxxxx-xxxx--x-x--xxxxxx-xxxx---x--x--x--x-|
G-777777-5555-1010--777777-5555-1010--777777-5555--10-10-10-10-|
C--------------------------------------------------------------|

D------------------------------------------------------------------|
A------------------------------------------------------------------|
F-999999-7777-1212--999999-7777-1212--999999-7777-1212121212121212-|
C-xxxxxx-xxxx--x-x--xxxxxx-xxxx--x-x--xxxxxx-xxxx--x-x-x-x-x-x-x-x-|
G-777777-5555-1010--777777-5555-1010--777777-5555-1010101010101010-|
C------------------------------------------------------------------|

Ha y recuerden q esta tab es la original(por si la ponen en otra pag con otro nombre)
-SiK-





Comments


Popular Qbo tabs & chords
Desvanecer Bass Tabs
Desvanecer 1 Bass Tabs
Rien Bass Tabs
Desvanecer Tabs
Fantasma Tabs
Getting Away Tabs
Nada Que Pensar 1 Tabs
No Mas 3 Tabs
Solo Por Ti Tabs
Para Seguir Ukulele


Song lyrics



↑ Back to top | Tablatures and chords are parodies/interpretations of the original songs. You may use it for private study, scholarship, research or language learning purposes only
© 2014 AZChords.com Contact us | Privacy policy | DMCA | Add/correct tabs | Request tabs | Top 50 tabs