» » »

Qbo, Anclas Tabs (ver.1)

Artists:  A B C D E F G H I J K L M N O P Q R S T U V W X Y Z # 

Anclas Tabs (ver.1)

Qbo Tabs
Rating:
0/5 (0 votes)
Anclas lessons Tabs too difficult? Try these video lessons and learn fast
                Tuning: BEADF#B)
mute= .
slide= /
bend=

Intro
                           5x
B|----------------------------||
F#|-------8-----7-------7-----||
D|---------9-----7---9---9----||
A|-----9-----9-----9----------||
E|---7------------------------||
B|-0--------------------------||

Intro part 2
B|------------------------------------||
F#|-----------------------------------||
D|------------------------------------||
A|------------------------------------||
E|-2-2-2-2-2-2-2-2-2-2-2-2-2-2-2------||
B|-0-0-0-0-0-0-0-0-0-0-0-0-0-0-0------||
PM  . . . . . . . . . . . . . . .

Intro part 3
B|--------------------------|---------------------------------------||
F#|--------------------------|-----------------------------(7)------||
D|--------------------------|----------------------(4)-(5)---(7)----||
A|--------------------------|---------------------------------------||
E|-2-------------------5-5b-|-2-------------------------------------||
B|-0-0-0-3-0-0-0-0-3-0------|-0-0-0-3-0-0-0-0-3-0-------------------||

verse
B|----------------------------||
F#|-------8-----7-------7-----||
D|---------9-----7---9---9----||
A|-----9-----9-----9----------||
E|---7------------------------||
B|-0--------------------------||

Pre-chorus
B|-----------------------------------||
F#|----------------------------------||
D|-----------------------------------||
A|-----7-5---------------------------||
E|-2-5-5-3---------------------------||
B|-0-3-------------------------------||

chorus
B|--------------------------|---------------------------------------||
F#|--------------------------|-----------------------------(7)------||
D|--------------------------|----------------------(4)-(5)---(7)----||
A|--------------------------|---------------------------------------||
E|-2-------------------5-5--|-2-------------------------------------||
B|-0-0-0-3-0-0-0-0-3-0------|-0-0-0-3-0-0-0-0-3-0-------------------||

Play verse       (play as many times as needed)
Play pre-chorus  ( play as many times as needed)


bridge                                  2x
B|---------------------------------||
F#|------------9---------------8---||
D|------------12--------------11---||
A|---------------------------------||
E|-2-----5-2------2-----5-2--------||
B|-0-0-0-3-0-0----0-0-0-3-0-0------||
PM    . .     .      . .     .
B|--------------------------|---------------------------------------||
F#|--------------------------|-----------------------------(7)------||
D|--------------------------|----------------------(4)-(5)---(7)----||
A|--------------------------|---------------------------------------||
E|-2-------------------5-5b-|-2-------------------------------------||
B|-0-0-0-3-0-0-0-0-3-0------|-0-0-0-3-0-0-0-0-3-0-------------------||

B|--------------------------|-----------------------------------------||
F#|--------------------------|----------------------------------------||
D|--------------------------|------------------------11---12-11-------||
A|--------------------------|---------------------/9----9-------9-----||
E|-2-------------------5-5b-|-2-----------------------------------2---||
B|-0-0-0-3-0-0-0-0-3-0------|-0-0-0-3-0-0-0-0-3-0-----------------0---||
            

comments powered by Disqus
↑ Back to top | Qbo Tabs for Anclas. Lyrics for acoustic guitar and electric guitar. Tablatures and chords are parodies/interpretations of the original songs. You may use it for private study, scholarship, research or language learning purposes only