» » »

Qbo, Al Fin No Tengo Mas Cadenas Tabs (ver.1)

Artists:  A B C D E F G H I J K L M N O P Q R S T U V W X Y Z # 

Al Fin No Tengo Mas Cadenas Tabs (ver.1)

Qbo Tabs
 Rating:
4/5 (4 votes)
Al Fin No Tengo Mas Cadenas lessons Tabs too difficult? Try these video lessons and learn fast
1
                no mas


qbo





e:----------------------------------------------------------|
B:----------------------------------------------------------|
G:----------------------------------------------------------|
D:-4-4-4-4--4-4-4-4--4-4--4-4-4-4--4-4-4-4------------------|
A:-2-2-2-2--2-2-2-2--2-2--2-2-2-2--2-2-2-2------------------|
E:------------------------------------------5nh-7nh-5nh-5nh-|

e:--------------------------------------------|
B:--------------------------------------------|
G:--------------------------------------------|
D:-4-4-4-4--4-4-4-4--4-4--4-4-4-4--4-4-4-4----|
A:-2-2-2-2--2-2-2-2--2-2--2-2-2-2--2-2-2-2--2-|
E:------------------------------------------0-|

e:----------------------------------------------------------|
B:----------------------------------------------------------|
G:----------------------------------------------------------|
D:-4-4-4-4--4-4-4-4--4-4--4-4-4-4--4-4-4-4------------------|
A:-2-2-2-2--2-2-2-2--2-2--2-2-2-2--2-2-2-2------------------|
E:------------------------------------------5nh-7nh-5nh-5nh-|

e:--------------------------------------------|
B:--------------------------------------------|
G:--------------------------------------------|
D:-4-4-4-4--4-4-4-4--4-4--4-4-4-4--4-4-4-4----|
A:-2-2-2-2--2-2-2-2--2-2--2-2-2-2--2-2-2-2--2-|
E:------------------------------------------0-|

e:----------------------------------------------------------|
B:----------------------------------------------------------|
G:----------------------------------------------------------|
D:-4-4-4-4--4-4-4-4--4-4--4-4-4-4--4-4-4-4------------------|
A:-2-2-2-2--2-2-2-2--2-2--2-2-2-2--2-2-2-2------------------|
E:------------------------------------------5nh-7nh-5nh-5nh-|

e:--------------------------------------------|
B:--------------------------------------------|
G:--------------------------------------------|
D:-4-4-4-4--4-4-4-4--4-4--4-4-4-4--4-4-4-4----|
A:-2-2-2-2--2-2-2-2--2-2--2-2-2-2--2-2-2-2--2-|
E:------------------------------------------0-|


verse
e:---------------------------------------------------|
B:-15~~~~~------14~~~~-------------------------------|
G:----------------------14~~~~-----------------------|
D:------------------------------14/16~~~~\12/14~~~~~-|
A:---------------------------------------------------|
E:---------------------------------------------------|


chorus
por fin ya tengo mas tanguetas!!.. no mas kal zon zi yos
e:-----------------------------------|
B:-----------------------------------|
G:-----------------------------------|
D:-4--4-4----------7--7-7--2-2-2-2-2-|
A:-2--2-2--5--5-5--5--5-5--0-0-0-0-0-|
E:---------3--3-3--------------------|


fill           wah
e:--------------------------------------------|
B:--------------------------------------------|
G:-------------/14----------------------------|
D:-7nh--(7nh)--------12~~~~~--(12~~~~)----7nh-|
A:--------------------------------------------|
E:--------------------------------------------|


verse
e:---------------------------------------------------|
B:-15~~~~~------14~~~~-------------------------------|
G:----------------------14~~~~-----------------------|
D:------------------------------14/16~~~~\12/14~~~~~-|
A:---------------------------------------------------|
E:---------------------------------------------------|

e:----------------------------------------------------------|
B:----------------------------------------------------------|
G:----------------------------------------------------------|
D:-4-4-4-4--4-4-4-4--4-4--4-4-4-4--4-4-4-4------------------|
A:-2-2-2-2--2-2-2-2--2-2--2-2-2-2--2-2-2-2------------------|
E:------------------------------------------5nh-7nh-5nh-5nh-|

e:--------------------------------------------|
B:--------------------------------------------|
G:--------------------------------------------|
D:-4-4-4-4--4-4-4-4--4-4--4-4-4-4--4-4-4-4----|
A:-2-2-2-2--2-2-2-2--2-2--2-2-2-2--2-2-2-2--2-|
E:------------------------------------------0-|

e:----------------------------------------------------------|
B:----------------------------------------------------------|
G:----------------------------------------------------------|
D:-4-4-4-4--4-4-4-4--4-4--4-4-4-4--4-4-4-4------------------|
A:-2-2-2-2--2-2-2-2--2-2--2-2-2-2--2-2-2-2------------------|
E:------------------------------------------5nh-7nh-5nh-5nh-|

e:--------------------------------------------|
B:--------------------------------------------|
G:--------------------------------------------|
D:-4-4-4-4--4-4-4-4--4-4--4-4-4-4--4-4-4-4----|
A:-2-2-2-2--2-2-2-2--2-2--2-2-2-2--2-2-2-2--2-|
E:------------------------------------------0-|

chorus
por fin ya te masturbas con lAS    ka de nas    por  el  aaano
e:-----------------------------------|
B:-----------------------------------|
G:-----------------------------------|
D:-4--4-4----------7--7-7--2-2-2-2-2-|
A:-2--2-2--5--5-5--5--5-5--0-0-0-0-0-|
E:---------3--3-3--------------------|

  bass line         gtr fdbk     verse
e:-----------------------------------------------------------------|
B:-----------------------------------------------------------------|
G:-----------------------------------------------------------------|
D:-----------------------------------------------------------------|
A:-----------------------------------------------------------------|
E:-----------------------------------------------------------------|


chorus
por fin ya me la mamas con todo y las kadenas....
e:-----------------------------------|
B:-----------------------------------|
G:-----------------------------------|
D:-4--4-4----------7--7-7--2-2-2-2-2-|
A:-2--2-2--5--5-5--5--5-5--0-0-0-0-0-|
E:---------3--3-3--------------------|

no mas!  no mas! nomas!

e:----0-------0-------0------0---|
B:----0-------0-------0------0---|
G:-------------------------------|
D:-4---------------7-------2-----|
A:-2-------5-------5-------0-----|
E:---------3---------------------|

                                       fdbk
e:-0-------(0)--------(0)-------(0)---------|
B:-0-------(0)--------(0)-------(0)---------|
G:------------------------------------------|
D:------------------------------------------|
A:------------------------------------------|
E:------------------------------------------|

fdbk = feedback
 ~   = vibrato
nh   = natural harmonic

ah ke bonito kuando 2 lesbianas se besan en el cine, si la vida fuera asi yo no saldria de
los cines, les apesta a ceviche con la saliva bubbalo.
nombre! cuando vi esa escena se me estaba cocinando un burrito dentro de mis pantalones
            
Submit corrections

comments powered by Disqus
↑ Back to top | Qbo Tabs for Al Fin No Tengo Mas Cadenas. Lyrics for acoustic guitar and electric guitar. 1 Tablatures and chords are parodies/interpretations of the original songs. You may use it for private study, scholarship, research or language learning purposes only