» » »

Q And Not U, Y Plus White Girls Bass tabs (ver.1)

Artists:  A B C D E F G H I J K L M N O P Q R S T U V W X Y Z # 

Y Plus White Girls Bass tabs (ver.1)

Q And Not U Tabs
 Rating:
4/5 (4 votes)
Y Plus White Girls lessons Tabs too difficult? Try these video lessons and learn fast
1
                Band: Q And Not U
Normal Tuning: GDAE


0:18
G|---------------------------------------|
D|7-77-----7-77-----7-77-----------------|
A|-----5-5------5-5------5-5-------------|
E|---------------------------7777---88\--|x12


1:20            1:28           1:37
G|-------------|--------------|-------------|
D|-------------|--------------|-------------|    4 times each block
A|5555---------|5555-5--------|5555-55------|
E|-----2-2xx3--|x4----2-2h3-3-|x4------2h3--|x4


1:45
G|------------------------|
D|------------------------|
A|5-----5-----5-----5-----|
E|------------------------|


2:01
G|---------------------------------------|
D|7-77-----7-77-----7-77-----------------|
A|-----5-5------5-5------5-5-------------|
E|---------------------------7777---88\--|x7


last time like this
G|---------------------------------|
D|7-77-----7-77-----7-77-------5\--|
A|-----5-5------5-5------5-5-33----|
E|---------------------------------|
            
Submit corrections

comments powered by Disqus
↑ Back to top | Q And Not U Bass for Y Plus White Girls. Lyrics for acoustic guitar and electric guitar. 1 Tablatures and chords are parodies/interpretations of the original songs. You may use it for private study, scholarship, research or language learning purposes only